ISO-10303-21;
HEADER;
FILE_DESCRIPTION (( 'STEP AP203' ),
    '1' );
FILE_NAME ('WH60.STEP',
    '2016-03-18T07:53:13',
    ( '' ),
    ( '' ),
    'SwSTEP 2.0',
    'SolidWorks 2010',
    '' );
FILE_SCHEMA (( 'CONFIG_CONTROL_DESIGN' ));
ENDSEC;

DATA;
#1 = MANIFOLD_SOLID_BREP ( 'Chamfer1', #106 ) ;
#2 = AXIS2_PLACEMENT_3D ( 'NONE', #179, #182, #183 ) ;
#3 = AXIS2_PLACEMENT_3D ( 'NONE', #166, #167, #170 ) ;
#4 = EDGE_CURVE ( 'NONE', #193, #193, #111, .T. ) ;
#5 = AXIS2_PLACEMENT_3D ( 'NONE', #201, #184, #165 ) ;
#6 = AXIS2_PLACEMENT_3D ( 'NONE', #199, #173, #172 ) ;
#7 = EDGE_CURVE ( 'NONE', #192, #192, #83, .T. ) ;
#8 = EDGE_CURVE ( 'NONE', #197, #197, #89, .T. ) ;
#9 = AXIS2_PLACEMENT_3D ( 'NONE', #177, #143, #142 ) ;
#10 = EDGE_CURVE ( 'NONE', #162, #162, #40, .T. ) ;
#11 = AXIS2_PLACEMENT_3D ( 'NONE', #180, #175, #207 ) ;
#12 = EDGE_CURVE ( 'NONE', #202, #202, #80, .T. ) ;
#13 = EDGE_CURVE ( 'NONE', #138, #138, #87, .T. ) ;
#14 = AXIS2_PLACEMENT_3D ( 'NONE', #185, #169, #168 ) ;
#15 = AXIS2_PLACEMENT_3D ( 'NONE', #186, #176, #164 ) ;
#16 = PRODUCT_RELATED_PRODUCT_CATEGORY ( 'detail', '', ( #209 ) ) ;
#17 = CC_DESIGN_APPROVAL ( #23, ( #27 ) ) ;
#18 = CC_DESIGN_PERSON_AND_ORGANIZATION_ASSIGNMENT ( #52, #154, ( #24 ) ) ;
#19 = CC_DESIGN_SECURITY_CLASSIFICATION ( #27, ( #24 ) ) ;
#20 = CC_DESIGN_DATE_AND_TIME_ASSIGNMENT ( #59, #141, ( #26 ) ) ;
#21 = CC_DESIGN_PERSON_AND_ORGANIZATION_ASSIGNMENT ( #64, #155, ( #26 ) ) ;
#22 = CC_DESIGN_APPROVAL ( #25, ( #26 ) ) ;
#23 = APPROVAL ( #208, 'UNSPECIFIED' ) ;
#24 = PRODUCT_DEFINITION_FORMATION_WITH_SPECIFIED_SOURCE ( 'ANY', '', #209, .NOT_KNOWN. ) ;
#25 = APPROVAL ( #144, 'UNSPECIFIED' ) ;
#26 = PRODUCT_DEFINITION ( 'UNKNOWN', '', #24, #93 ) ;
#27 = SECURITY_CLASSIFICATION ( '', '', #136 ) ;
#28 = CC_DESIGN_PERSON_AND_ORGANIZATION_ASSIGNMENT ( #72, #206, ( #209 ) ) ;
#29 = AXIS2_PLACEMENT_3D ( 'NONE', #152, #194, #181 ) ;
#30 = CC_DESIGN_DATE_AND_TIME_ASSIGNMENT ( #46, #160, ( #27 ) ) ;
#31 = AXIS2_PLACEMENT_3D ( 'NONE', #191, #205, #139 ) ;
#32 = CC_DESIGN_PERSON_AND_ORGANIZATION_ASSIGNMENT ( #51, #150, ( #24 ) ) ;
#33 = CC_DESIGN_PERSON_AND_ORGANIZATION_ASSIGNMENT ( #50, #134, ( #27 ) ) ;
#34 = AXIS2_PLACEMENT_3D ( 'NONE', #149, #187, #198 ) ;
#35 = AXIS2_PLACEMENT_3D ( 'NONE', #174, #188, #189 ) ;
#36 = AXIS2_PLACEMENT_3D ( 'NONE', #203, #140, #156 ) ;
#37 = CC_DESIGN_APPROVAL ( #38, ( #24 ) ) ;
#38 = APPROVAL ( #200, 'UNSPECIFIED' ) ;
#39 = CALENDAR_DATE ( 2016, 18, 3 ) ;
#40 = CIRCLE ( 'NONE', #11, 29.90000000000048500 ) ;
#41 = APPROVAL_DATE_TIME ( #85, #23 ) ;
#42 = LOCAL_TIME ( 9, 53, 13.00000000000000000, #43 ) ;
#43 = COORDINATED_UNIVERSAL_TIME_OFFSET ( 2, 0, .AHEAD. ) ;
#44 = APPROVAL_PERSON_ORGANIZATION ( #45, #23, #135 ) ;
#45 = PERSON_AND_ORGANIZATION ( #133, #73 ) ;
#46 = DATE_AND_TIME ( #47, #48 ) ;
#47 = CALENDAR_DATE ( 2016, 18, 3 ) ;
#48 = LOCAL_TIME ( 9, 53, 13.00000000000000000, #49 ) ;
#49 = COORDINATED_UNIVERSAL_TIME_OFFSET ( 2, 0, .AHEAD. ) ;
#50 = PERSON_AND_ORGANIZATION ( #133, #73 ) ;
#51 = PERSON_AND_ORGANIZATION ( #133, #73 ) ;
#52 = PERSON_AND_ORGANIZATION ( #133, #73 ) ;
#53 = APPROVAL_DATE_TIME ( #54, #38 ) ;
#54 = DATE_AND_TIME ( #55, #56 ) ;
#55 = CALENDAR_DATE ( 2016, 18, 3 ) ;
#56 = LOCAL_TIME ( 9, 53, 13.00000000000000000, #57 ) ;
#57 = COORDINATED_UNIVERSAL_TIME_OFFSET ( 2, 0, .AHEAD. ) ;
#58 = APPROVAL_PERSON_ORGANIZATION ( #60, #38, #147 ) ;
#59 = DATE_AND_TIME ( #61, #62 ) ;
#60 = PERSON_AND_ORGANIZATION ( #133, #73 ) ;
#61 = CALENDAR_DATE ( 2016, 18, 3 ) ;
#62 = LOCAL_TIME ( 9, 53, 13.00000000000000000, #63 ) ;
#63 = COORDINATED_UNIVERSAL_TIME_OFFSET ( 2, 0, .AHEAD. ) ;
#64 = PERSON_AND_ORGANIZATION ( #133, #73 ) ;
#65 = APPROVAL_DATE_TIME ( #66, #25 ) ;
#66 = DATE_AND_TIME ( #67, #68 ) ;
#67 = CALENDAR_DATE ( 2016, 18, 3 ) ;
#68 = LOCAL_TIME ( 9, 53, 13.00000000000000000, #69 ) ;
#69 = COORDINATED_UNIVERSAL_TIME_OFFSET ( 2, 0, .AHEAD. ) ;
#70 = APPROVAL_PERSON_ORGANIZATION ( #71, #25, #195 ) ;
#71 = PERSON_AND_ORGANIZATION ( #133, #73 ) ;
#72 = PERSON_AND_ORGANIZATION ( #133, #73 ) ;
#73 = ORGANIZATION ( 'UNSPECIFIED', 'UNSPECIFIED', '' ) ;
#74 = SHAPE_DEFINITION_REPRESENTATION ( #94, #101 ) ;
#75 =( GEOMETRIC_REPRESENTATION_CONTEXT ( 3 ) GLOBAL_UNCERTAINTY_ASSIGNED_CONTEXT ( ( #102 ) ) GLOBAL_UNIT_ASSIGNED_CONTEXT ( ( #163, #158, #161 ) ) REPRESENTATION_CONTEXT ( 'NONE', 'WORKASPACE' ) );
#76 = FACE_BOUND ( 'NONE', #116, .T. ) ;
#77 = FACE_OUTER_BOUND ( 'NONE', #115, .T. ) ;
#78 = FACE_OUTER_BOUND ( 'NONE', #132, .T. ) ;
#79 = FACE_OUTER_BOUND ( 'NONE', #112, .T. ) ;
#80 = CIRCLE ( 'NONE', #6, 18.00000000000000000 ) ;
#81 = FACE_OUTER_BOUND ( 'NONE', #103, .T. ) ;
#82 = CYLINDRICAL_SURFACE ( 'NONE', #15, 30.00000000000000000 ) ;
#83 = CIRCLE ( 'NONE', #2, 18.00000000000000000 ) ;
#84 = FACE_OUTER_BOUND ( 'NONE', #104, .T. ) ;
#85 = DATE_AND_TIME ( #39, #42 ) ;
#86 = CYLINDRICAL_SURFACE ( 'NONE', #31, 18.00000000000000000 ) ;
#87 = CIRCLE ( 'NONE', #14, 30.00000000000000000 ) ;
#88 = FACE_BOUND ( 'NONE', #105, .T. ) ;
#89 = CIRCLE ( 'NONE', #9, 30.00000000000000000 ) ;
#90 = FACE_OUTER_BOUND ( 'NONE', #110, .T. ) ;
#91 = FACE_BOUND ( 'NONE', #131, .T. ) ;
#92 = FACE_OUTER_BOUND ( 'NONE', #108, .T. ) ;
#93 = DESIGN_CONTEXT ( 'detailed design', #146, 'design' ) ;
#94 = PRODUCT_DEFINITION_SHAPE ( 'NONE', 'NONE',  #26 ) ;
#95 = ADVANCED_FACE ( 'NONE', ( #130, #124 ), #120, .T. ) ;
#96 = ADVANCED_FACE ( 'NONE', ( #78, #76 ), #123, .T. ) ;
#97 = ADVANCED_FACE ( 'NONE', ( #84, #81 ), #82, .T. ) ;
#98 = ADVANCED_FACE ( 'NONE', ( #77, #88 ), #204, .T. ) ;
#99 = ADVANCED_FACE ( 'NONE', ( #79, #91 ), #171, .F. ) ;
#100 = ADVANCED_FACE ( 'NONE', ( #92, #90 ), #86, .F. ) ;
#101 = ADVANCED_BREP_SHAPE_REPRESENTATION ( 'WH60', ( #1, #29 ), #75 ) ;
#102 = UNCERTAINTY_MEASURE_WITH_UNIT (LENGTH_MEASURE( 1.000000000000000100E-005 ), #163, 'distance_accuracy_value', 'NONE');
#103 = EDGE_LOOP ( 'NONE', ( #114 ) ) ;
#104 = EDGE_LOOP ( 'NONE', ( #117 ) ) ;
#105 = EDGE_LOOP ( 'NONE', ( #125 ) ) ;
#106 = CLOSED_SHELL ( 'NONE', ( #97, #99, #100, #98, #95, #96 ) ) ;
#107 = EDGE_LOOP ( 'NONE', ( #126 ) ) ;
#108 = EDGE_LOOP ( 'NONE', ( #118 ) ) ;
#109 = ORIENTED_EDGE ( 'NONE', *, *, #8, .F. ) ;
#110 = EDGE_LOOP ( 'NONE', ( #119 ) ) ;
#111 = CIRCLE ( 'NONE', #5, 29.89999999999959000 ) ;
#112 = EDGE_LOOP ( 'NONE', ( #127 ) ) ;
#113 = ORIENTED_EDGE ( 'NONE', *, *, #10, .T. ) ;
#114 = ORIENTED_EDGE ( 'NONE', *, *, #13, .T. ) ;
#115 = EDGE_LOOP ( 'NONE', ( #113 ) ) ;
#116 = EDGE_LOOP ( 'NONE', ( #121 ) ) ;
#117 = ORIENTED_EDGE ( 'NONE', *, *, #8, .T. ) ;
#118 = ORIENTED_EDGE ( 'NONE', *, *, #7, .F. ) ;
#119 = ORIENTED_EDGE ( 'NONE', *, *, #12, .T. ) ;
#120 = CONICAL_SURFACE ( 'NONE', #3, 30.00000000000000000, 0.7853981633962166000 ) ;
#121 = ORIENTED_EDGE ( 'NONE', *, *, #10, .F. ) ;
#122 = ORIENTED_EDGE ( 'NONE', *, *, #7, .T. ) ;
#123 = CONICAL_SURFACE ( 'NONE', #34, 29.90000000000048500, 0.7853981633961819600 ) ;
#124 = FACE_OUTER_BOUND ( 'NONE', #128, .T. ) ;
#125 = ORIENTED_EDGE ( 'NONE', *, *, #12, .F. ) ;
#126 = ORIENTED_EDGE ( 'NONE', *, *, #4, .F. ) ;
#127 = ORIENTED_EDGE ( 'NONE', *, *, #4, .T. ) ;
#128 = EDGE_LOOP ( 'NONE', ( #109 ) ) ;
#129 = ORIENTED_EDGE ( 'NONE', *, *, #13, .F. ) ;
#130 = FACE_BOUND ( 'NONE', #107, .T. ) ;
#131 = EDGE_LOOP ( 'NONE', ( #122 ) ) ;
#132 = EDGE_LOOP ( 'NONE', ( #129 ) ) ;
#133 = PERSON ( 'UNSPECIFIED', 'UNSPECIFIED', 'UNSPECIFIED', ('UNSPECIFIED'), ('UNSPECIFIED'), ('UNSPECIFIED') ) ;
#134 = PERSON_AND_ORGANIZATION_ROLE ( 'classification_officer' ) ;
#135 = APPROVAL_ROLE ( '' ) ;
#136 = SECURITY_CLASSIFICATION_LEVEL ( 'unclassified' ) ;
#137 = APPLICATION_PROTOCOL_DEFINITION ( 'international standard', 'config_control_design', 1994, #157 ) ;
#138 = VERTEX_POINT ( 'NONE', #178 ) ;
#139 = DIRECTION ( 'NONE',  ( 0.0000000000000000000, 0.0000000000000000000, -1.000000000000000000 ) ) ;
#140 = DIRECTION ( 'NONE',  ( 1.000000000000000000, 0.0000000000000000000, 0.0000000000000000000 ) ) ;
#141 = DATE_TIME_ROLE ( 'creation_date' ) ;
#142 = DIRECTION ( 'NONE',  ( 0.0000000000000000000, 0.0000000000000000000, -1.000000000000000000 ) ) ;
#143 = DIRECTION ( 'NONE',  ( 1.000000000000000000, -0.0000000000000000000, -0.0000000000000000000 ) ) ;
#144 = APPROVAL_STATUS ( 'not_yet_approved' ) ;
#145 = CARTESIAN_POINT ( 'NONE',  ( 3000.000000000000000, 0.0000000000000000000, -18.00000000000000000 ) ) ;
#146 = APPLICATION_CONTEXT ( 'configuration controlled 3d designs of mechanical parts and assemblies' ) ;
#147 = APPROVAL_ROLE ( '' ) ;
#148 = APPLICATION_PROTOCOL_DEFINITION ( 'international standard', 'config_control_design', 1994, #146 ) ;
#149 = CARTESIAN_POINT ( 'NONE',  ( 3000.000000000000000, 0.0000000000000000000, 0.0000000000000000000 ) ) ;
#150 = PERSON_AND_ORGANIZATION_ROLE ( 'design_supplier' ) ;
#151 = CARTESIAN_POINT ( 'NONE',  ( -2999.899999999999200, 0.0000000000000000000, -30.00000000000000000 ) ) ;
#152 = CARTESIAN_POINT ( 'NONE',  ( 0.0000000000000000000, 0.0000000000000000000, 0.0000000000000000000 ) ) ;
#153 = MECHANICAL_CONTEXT ( 'NONE', #157, 'mechanical' ) ;
#154 = PERSON_AND_ORGANIZATION_ROLE ( 'creator' ) ;
#155 = PERSON_AND_ORGANIZATION_ROLE ( 'creator' ) ;
#156 = DIRECTION ( 'NONE',  ( 0.0000000000000000000, 0.0000000000000000000, -1.000000000000000000 ) ) ;
#157 = APPLICATION_CONTEXT ( 'configuration controlled 3d designs of mechanical parts and assemblies' ) ;
#158 =( NAMED_UNIT ( * ) PLANE_ANGLE_UNIT ( ) SI_UNIT ( $, .RADIAN. ) );
#159 = CARTESIAN_POINT ( 'NONE',  ( 3000.000000000000000, 0.0000000000000000000, -29.90000000000048500 ) ) ;
#160 = DATE_TIME_ROLE ( 'classification_date' ) ;
#161 =( NAMED_UNIT ( * ) SI_UNIT ( $, .STERADIAN. ) SOLID_ANGLE_UNIT ( ) );
#162 = VERTEX_POINT ( 'NONE', #159 ) ;
#163 =( LENGTH_UNIT ( ) NAMED_UNIT ( * ) SI_UNIT ( .MILLI., .METRE. ) );
#164 = DIRECTION ( 'NONE',  ( 0.0000000000000000000, 0.0000000000000000000, -1.000000000000000000 ) ) ;
#165 = DIRECTION ( 'NONE',  ( 0.0000000000000000000, 0.0000000000000000000, -1.000000000000000000 ) ) ;
#166 = CARTESIAN_POINT ( 'NONE',  ( -2999.899999999999200, 0.0000000000000000000, 0.0000000000000000000 ) ) ;
#167 = DIRECTION ( 'NONE',  ( 1.000000000000000000, -0.0000000000000000000, -0.0000000000000000000 ) ) ;
#168 = DIRECTION ( 'NONE',  ( 0.0000000000000000000, 0.0000000000000000000, -1.000000000000000000 ) ) ;
#169 = DIRECTION ( 'NONE',  ( -1.000000000000000000, 0.0000000000000000000, 0.0000000000000000000 ) ) ;
#170 = DIRECTION ( 'NONE',  ( 0.0000000000000000000, 0.0000000000000000000, -1.000000000000000000 ) ) ;
#171 = PLANE ( 'NONE',  #35 ) ;
#172 = DIRECTION ( 'NONE',  ( 0.0000000000000000000, 0.0000000000000000000, -1.000000000000000000 ) ) ;
#173 = DIRECTION ( 'NONE',  ( 1.000000000000000000, 0.0000000000000000000, 0.0000000000000000000 ) ) ;
#174 = CARTESIAN_POINT ( 'NONE',  ( -3000.000000000000000, 0.0000000000000000000, 0.0000000000000000000 ) ) ;
#175 = DIRECTION ( 'NONE',  ( 1.000000000000000000, 0.0000000000000000000, 0.0000000000000000000 ) ) ;
#176 = DIRECTION ( 'NONE',  ( 1.000000000000000000, 0.0000000000000000000, 0.0000000000000000000 ) ) ;
#177 = CARTESIAN_POINT ( 'NONE',  ( -2999.899999999999200, 0.0000000000000000000, 0.0000000000000000000 ) ) ;
#178 = CARTESIAN_POINT ( 'NONE',  ( 2999.900000000000100, 0.0000000000000000000, -30.00000000000000000 ) ) ;
#179 = CARTESIAN_POINT ( 'NONE',  ( -3000.000000000000000, 0.0000000000000000000, 0.0000000000000000000 ) ) ;
#180 = CARTESIAN_POINT ( 'NONE',  ( 3000.000000000000000, 0.0000000000000000000, 0.0000000000000000000 ) ) ;
#181 = DIRECTION ( 'NONE',  ( 1.000000000000000000, 0.0000000000000000000, 0.0000000000000000000 ) ) ;
#182 = DIRECTION ( 'NONE',  ( 1.000000000000000000, 0.0000000000000000000, 0.0000000000000000000 ) ) ;
#183 = DIRECTION ( 'NONE',  ( 0.0000000000000000000, 0.0000000000000000000, -1.000000000000000000 ) ) ;
#184 = DIRECTION ( 'NONE',  ( -1.000000000000000000, -0.0000000000000000000, -0.0000000000000000000 ) ) ;
#185 = CARTESIAN_POINT ( 'NONE',  ( 2999.900000000000100, 0.0000000000000000000, 0.0000000000000000000 ) ) ;
#186 = CARTESIAN_POINT ( 'NONE',  ( -3000.000000000000000, 0.0000000000000000000, 0.0000000000000000000 ) ) ;
#187 = DIRECTION ( 'NONE',  ( -1.000000000000000000, 0.0000000000000000000, 0.0000000000000000000 ) ) ;
#188 = DIRECTION ( 'NONE',  ( 1.000000000000000000, 0.0000000000000000000, 0.0000000000000000000 ) ) ;
#189 = DIRECTION ( 'NONE',  ( 0.0000000000000000000, 0.0000000000000000000, -1.000000000000000000 ) ) ;
#190 = CARTESIAN_POINT ( 'NONE',  ( -3000.000000000000000, 0.0000000000000000000, -18.00000000000000000 ) ) ;
#191 = CARTESIAN_POINT ( 'NONE',  ( -3000.000000000000000, 0.0000000000000000000, 0.0000000000000000000 ) ) ;
#192 = VERTEX_POINT ( 'NONE', #190 ) ;
#193 = VERTEX_POINT ( 'NONE', #196 ) ;
#194 = DIRECTION ( 'NONE',  ( 0.0000000000000000000, 0.0000000000000000000, 1.000000000000000000 ) ) ;
#195 = APPROVAL_ROLE ( '' ) ;
#196 = CARTESIAN_POINT ( 'NONE',  ( -3000.000000000000000, 0.0000000000000000000, -29.89999999999959000 ) ) ;
#197 = VERTEX_POINT ( 'NONE', #151 ) ;
#198 = DIRECTION ( 'NONE',  ( 0.0000000000000000000, 0.0000000000000000000, 1.000000000000000000 ) ) ;
#199 = CARTESIAN_POINT ( 'NONE',  ( 3000.000000000000000, 0.0000000000000000000, 0.0000000000000000000 ) ) ;
#200 = APPROVAL_STATUS ( 'not_yet_approved' ) ;
#201 = CARTESIAN_POINT ( 'NONE',  ( -3000.000000000000000, 0.0000000000000000000, 0.0000000000000000000 ) ) ;
#202 = VERTEX_POINT ( 'NONE', #145 ) ;
#203 = CARTESIAN_POINT ( 'NONE',  ( 3000.000000000000000, 0.0000000000000000000, 0.0000000000000000000 ) ) ;
#204 = PLANE ( 'NONE',  #36 ) ;
#205 = DIRECTION ( 'NONE',  ( 1.000000000000000000, 0.0000000000000000000, 0.0000000000000000000 ) ) ;
#206 = PERSON_AND_ORGANIZATION_ROLE ( 'design_owner' ) ;
#207 = DIRECTION ( 'NONE',  ( 0.0000000000000000000, 0.0000000000000000000, -1.000000000000000000 ) ) ;
#208 = APPROVAL_STATUS ( 'not_yet_approved' ) ;
#209 = PRODUCT ( 'WH60', 'WH60', '', ( #153 ) ) ;
ENDSEC;
END-ISO-10303-21;
