ISO-10303-21;
HEADER;
FILE_DESCRIPTION (( 'STEP AP203' ),
    '1' );
FILE_NAME ('WRB25.STEP',
    '2014-08-06T09:54:50',
    ( 'Ovidiu Buiga' ),
    ( '' ),
    'SwSTEP 2.0',
    'SolidWorks 2010',
    '' );
FILE_SCHEMA (( 'CONFIG_CONTROL_DESIGN' ));
ENDSEC;

DATA;
#1 = EDGE_CURVE ( 'NONE', #13, #23, #117, .T. ) ;
#2 = EDGE_CURVE ( 'NONE', #26, #27, #141, .T. ) ;
#3 = EDGE_CURVE ( 'NONE', #13, #28, #110, .T. ) ;
#4 = AXIS2_PLACEMENT_3D ( 'NONE', #10, #17, #29 ) ;
#5 = EDGE_CURVE ( 'NONE', #28, #13, #91, .T. ) ;
#6 = EDGE_CURVE ( 'NONE', #23, #18, #109, .T. ) ;
#7 = AXIS2_PLACEMENT_3D ( 'NONE', #15, #16, #14 ) ;
#8 = EDGE_CURVE ( 'NONE', #22, #23, #130, .T. ) ;
#9 = EDGE_CURVE ( 'NONE', #27, #18, #100, .T. ) ;
#10 = CARTESIAN_POINT ( 'NONE',  ( -3000.000000000000000, 0.0000000000000000000, 0.0000000000000000000 ) ) ;
#11 = DIRECTION ( 'NONE',  ( 0.7071067811866725800, 0.0000000000000000000, -0.7071067811864224500 ) ) ;
#12 = VERTEX_POINT ( 'NONE', #181 ) ;
#13 = VERTEX_POINT ( 'NONE', #177 ) ;
#14 = DIRECTION ( 'NONE',  ( 0.0000000000000000000, 0.0000000000000000000, -1.000000000000000000 ) ) ;
#15 = CARTESIAN_POINT ( 'NONE',  ( 3000.000000000000000, 0.0000000000000000000, 0.0000000000000000000 ) ) ;
#16 = DIRECTION ( 'NONE',  ( 1.000000000000000000, 0.0000000000000000000, 0.0000000000000000000 ) ) ;
#17 = DIRECTION ( 'NONE',  ( -1.000000000000000000, -0.0000000000000000000, -0.0000000000000000000 ) ) ;
#18 = VERTEX_POINT ( 'NONE', #186 ) ;
#19 = DIRECTION ( 'NONE',  ( -1.000000000000000000, -0.0000000000000000000, -0.0000000000000000000 ) ) ;
#20 = CARTESIAN_POINT ( 'NONE',  ( -2999.500000000000500, 0.0000000000000000000, -12.50000000000000000 ) ) ;
#21 = DIRECTION ( 'NONE',  ( 0.0000000000000000000, 0.0000000000000000000, -1.000000000000000000 ) ) ;
#22 = VERTEX_POINT ( 'NONE', #162 ) ;
#23 = VERTEX_POINT ( 'NONE', #25 ) ;
#24 = CARTESIAN_POINT ( 'NONE',  ( -3000.000000000000000, 0.0000000000000000000, -12.50000000000000000 ) ) ;
#25 = CARTESIAN_POINT ( 'NONE',  ( -2999.500000000000500, 0.0000000000000000000, -12.50000000000000000 ) ) ;
#26 = VERTEX_POINT ( 'NONE', #173 ) ;
#27 = VERTEX_POINT ( 'NONE', #182 ) ;
#28 = VERTEX_POINT ( 'NONE', #169 ) ;
#29 = DIRECTION ( 'NONE',  ( 0.0000000000000000000, 0.0000000000000000000, -1.000000000000000000 ) ) ;
#30 = CARTESIAN_POINT ( 'NONE',  ( -3000.000000000000000, 0.0000000000000000000, 0.0000000000000000000 ) ) ;
#31 = APPLICATION_CONTEXT ( 'configuration controlled 3d designs of mechanical parts and assemblies' ) ;
#32 = APPLICATION_PROTOCOL_DEFINITION ( 'international standard', 'config_control_design', 1994, #31 ) ;
#33 = MECHANICAL_CONTEXT ( 'NONE', #31, 'mechanical' ) ;
#34 = PERSON_AND_ORGANIZATION_ROLE ( 'design_owner' ) ;
#35 = APPLICATION_CONTEXT ( 'configuration controlled 3d designs of mechanical parts and assemblies' ) ;
#36 = APPLICATION_PROTOCOL_DEFINITION ( 'international standard', 'config_control_design', 1994, #35 ) ;
#37 = APPROVAL_STATUS ( 'not_yet_approved' ) ;
#38 = APPROVAL_ROLE ( '' ) ;
#39 = PERSON_AND_ORGANIZATION_ROLE ( 'creator' ) ;
#40 = DATE_TIME_ROLE ( 'creation_date' ) ;
#41 = APPROVAL_STATUS ( 'not_yet_approved' ) ;
#42 = APPROVAL_ROLE ( '' ) ;
#43 = PERSON_AND_ORGANIZATION_ROLE ( 'creator' ) ;
#44 = PERSON_AND_ORGANIZATION_ROLE ( 'design_supplier' ) ;
#45 = SECURITY_CLASSIFICATION_LEVEL ( 'unclassified' ) ;
#46 = PERSON_AND_ORGANIZATION_ROLE ( 'classification_officer' ) ;
#47 = DATE_TIME_ROLE ( 'classification_date' ) ;
#48 = APPROVAL_STATUS ( 'not_yet_approved' ) ;
#49 = APPROVAL_ROLE ( '' ) ;
#50 = ADVANCED_FACE ( 'NONE', ( #124 ), #123, .T. ) ;
#51 =( NAMED_UNIT ( * ) SI_UNIT ( $, .STERADIAN. ) SOLID_ANGLE_UNIT ( ) );
#52 = LOCAL_TIME ( 12, 54, 50.00000000000000000, #90 ) ;
#53 = PERSON_AND_ORGANIZATION ( #262, #114 ) ;
#54 = CALENDAR_DATE ( 2014, 6, 8 ) ;
#55 = APPROVAL_DATE_TIME ( #83, #204 ) ;
#56 = COORDINATED_UNIVERSAL_TIME_OFFSET ( 2, 0, .AHEAD. ) ;
#57 = LOCAL_TIME ( 12, 54, 50.00000000000000000, #77 ) ;
#58 = CALENDAR_DATE ( 2014, 6, 8 ) ;
#59 = CALENDAR_DATE ( 2014, 6, 8 ) ;
#60 = FACE_OUTER_BOUND ( 'NONE', #156, .T. ) ;
#61 = CALENDAR_DATE ( 2014, 6, 8 ) ;
#62 = FACE_OUTER_BOUND ( 'NONE', #159, .T. ) ;
#63 = FACE_OUTER_BOUND ( 'NONE', #129, .T. ) ;
#64 = LOCAL_TIME ( 12, 54, 50.00000000000000000, #56 ) ;
#65 = PERSON_AND_ORGANIZATION ( #262, #114 ) ;
#66 = DATE_AND_TIME ( #54, #154 ) ;
#67 = ORIENTED_EDGE ( 'NONE', *, *, #2, .F. ) ;
#68 = CALENDAR_DATE ( 2014, 6, 8 ) ;
#69 = DATE_AND_TIME ( #58, #52 ) ;
#70 = DATE_AND_TIME ( #68, #84 ) ;
#71 = ORIENTED_EDGE ( 'NONE', *, *, #207, .F. ) ;
#72 = ORIENTED_EDGE ( 'NONE', *, *, #8, .T. ) ;
#73 = ORIENTED_EDGE ( 'NONE', *, *, #220, .F. ) ;
#74 = VECTOR ( 'NONE', #185, 1000.000000000000000 ) ;
#75 = PERSON_AND_ORGANIZATION ( #262, #114 ) ;
#76 = ORIENTED_EDGE ( 'NONE', *, *, #3, .T. ) ;
#77 = COORDINATED_UNIVERSAL_TIME_OFFSET ( 2, 0, .AHEAD. ) ;
#78 = DATE_AND_TIME ( #59, #64 ) ;
#79 = ORIENTED_EDGE ( 'NONE', *, *, #189, .T. ) ;
#80 = ORIENTED_EDGE ( 'NONE', *, *, #5, .F. ) ;
#81 = ORIENTED_EDGE ( 'NONE', *, *, #5, .T. ) ;
#82 = PERSON_AND_ORGANIZATION ( #262, #114 ) ;
#83 = DATE_AND_TIME ( #61, #57 ) ;
#84 = LOCAL_TIME ( 12, 54, 50.00000000000000000, #112 ) ;
#85 = ORIENTED_EDGE ( 'NONE', *, *, #196, .F. ) ;
#86 = EDGE_LOOP ( 'NONE', ( #97, #67, #131, #143 ) ) ;
#87 = ORIENTED_EDGE ( 'NONE', *, *, #6, .F. ) ;
#88 = CONICAL_SURFACE ( 'NONE', #209, 11.99999999999867800, 0.7853981633981596000 ) ;
#89 = APPROVAL_PERSON_ORGANIZATION ( #53, #204, #42 ) ;
#90 = COORDINATED_UNIVERSAL_TIME_OFFSET ( 2, 0, .AHEAD. ) ;
#91 = CIRCLE ( 'NONE', #213, 12.00000000000045500 ) ;
#92 = LINE ( 'NONE', #171, #127 ) ;
#93 = VECTOR ( 'NONE', #164, 1000.000000000000000 ) ;
#94 = LINE ( 'NONE', #168, #93 ) ;
#95 = CIRCLE ( 'NONE', #206, 12.50000000000000000 ) ;
#96 = FACE_OUTER_BOUND ( 'NONE', #86, .T. ) ;
#97 = ORIENTED_EDGE ( 'NONE', *, *, #9, .F. ) ;
#98 = ORIENTED_EDGE ( 'NONE', *, *, #226, .F. ) ;
#99 = CIRCLE ( 'NONE', #201, 11.99999999999867800 ) ;
#100 = LINE ( 'NONE', #172, #74 ) ;
#101 = CONICAL_SURFACE ( 'NONE', #224, 12.50000000000000000, 0.7853981633972713100 ) ;
#102 = LINE ( 'NONE', #260, #120 ) ;
#103 = FACE_OUTER_BOUND ( 'NONE', #135, .T. ) ;
#104 = APPROVAL_PERSON_ORGANIZATION ( #106, #198, #49 ) ;
#105 = CYLINDRICAL_SURFACE ( 'NONE', #222, 12.50000000000000000 ) ;
#106 = PERSON_AND_ORGANIZATION ( #262, #114 ) ;
#107 = ORIENTED_EDGE ( 'NONE', *, *, #191, .T. ) ;
#108 = ORIENTED_EDGE ( 'NONE', *, *, #196, .T. ) ;
#109 = LINE ( 'NONE', #24, #126 ) ;
#110 = CIRCLE ( 'NONE', #4, 12.00000000000045500 ) ;
#111 = SHAPE_DEFINITION_REPRESENTATION ( #230, #273 ) ;
#112 = COORDINATED_UNIVERSAL_TIME_OFFSET ( 2, 0, .AHEAD. ) ;
#113 = APPROVAL_DATE_TIME ( #66, #194 ) ;
#114 = ORGANIZATION ( 'UNSPECIFIED', 'UNSPECIFIED', '' ) ;
#115 = PERSON_AND_ORGANIZATION ( #262, #114 ) ;
#116 =( GEOMETRIC_REPRESENTATION_CONTEXT ( 3 ) GLOBAL_UNCERTAINTY_ASSIGNED_CONTEXT ( ( #272 ) ) GLOBAL_UNIT_ASSIGNED_CONTEXT ( ( #249, #240, #51 ) ) REPRESENTATION_CONTEXT ( 'NONE', 'WORKASPACE' ) );
#117 = LINE ( 'NONE', #20, #119 ) ;
#118 = CONICAL_SURFACE ( 'NONE', #223, 12.50000000000000000, 0.7853981633972713100 ) ;
#119 = VECTOR ( 'NONE', #11, 1000.000000000000100 ) ;
#120 = VECTOR ( 'NONE', #256, 1000.000000000000100 ) ;
#121 = EDGE_LOOP ( 'NONE', ( #85, #72, #145, #79 ) ) ;
#122 = ORIENTED_EDGE ( 'NONE', *, *, #1, .T. ) ;
#123 = CONICAL_SURFACE ( 'NONE', #215, 11.99999999999867800, 0.7853981633981596000 ) ;
#124 = FACE_OUTER_BOUND ( 'NONE', #136, .T. ) ;
#125 = ORIENTED_EDGE ( 'NONE', *, *, #226, .T. ) ;
#126 = VECTOR ( 'NONE', #167, 1000.000000000000000 ) ;
#127 = VECTOR ( 'NONE', #166, 1000.000000000000000 ) ;
#128 = ORIENTED_EDGE ( 'NONE', *, *, #8, .F. ) ;
#129 = EDGE_LOOP ( 'NONE', ( #76, #81 ) ) ;
#130 = CIRCLE ( 'NONE', #203, 12.50000000000000000 ) ;
#131 = ORIENTED_EDGE ( 'NONE', *, *, #190, .T. ) ;
#132 = ORIENTED_EDGE ( 'NONE', *, *, #207, .T. ) ;
#133 = PERSON_AND_ORGANIZATION ( #262, #114 ) ;
#134 = CYLINDRICAL_SURFACE ( 'NONE', #195, 12.50000000000000000 ) ;
#135 = EDGE_LOOP ( 'NONE', ( #144, #107 ) ) ;
#136 = EDGE_LOOP ( 'NONE', ( #157, #137, #73, #155 ) ) ;
#137 = ORIENTED_EDGE ( 'NONE', *, *, #9, .T. ) ;
#138 = ORIENTED_EDGE ( 'NONE', *, *, #3, .F. ) ;
#139 = EDGE_LOOP ( 'NONE', ( #80, #125, #71, #158 ) ) ;
#140 = ORIENTED_EDGE ( 'NONE', *, *, #220, .T. ) ;
#141 = CIRCLE ( 'NONE', #7, 11.99999999999867800 ) ;
#142 = APPROVAL_DATE_TIME ( #78, #198 ) ;
#143 = ORIENTED_EDGE ( 'NONE', *, *, #189, .F. ) ;
#144 = ORIENTED_EDGE ( 'NONE', *, *, #2, .T. ) ;
#145 = ORIENTED_EDGE ( 'NONE', *, *, #6, .T. ) ;
#146 = CLOSED_SHELL ( 'NONE', ( #50, #235, #234, #236, #237, #238, #232, #233 ) ) ;
#147 = COORDINATED_UNIVERSAL_TIME_OFFSET ( 2, 0, .AHEAD. ) ;
#148 = FACE_OUTER_BOUND ( 'NONE', #139, .T. ) ;
#149 = CIRCLE ( 'NONE', #225, 12.50000000000000000 ) ;
#150 = CIRCLE ( 'NONE', #208, 12.50000000000000000 ) ;
#151 = FACE_OUTER_BOUND ( 'NONE', #121, .T. ) ;
#152 = PERSON_AND_ORGANIZATION ( #262, #114 ) ;
#153 = APPROVAL_PERSON_ORGANIZATION ( #152, #194, #38 ) ;
#154 = LOCAL_TIME ( 12, 54, 50.00000000000000000, #147 ) ;
#155 = ORIENTED_EDGE ( 'NONE', *, *, #190, .F. ) ;
#156 = EDGE_LOOP ( 'NONE', ( #98, #138, #122, #128 ) ) ;
#157 = ORIENTED_EDGE ( 'NONE', *, *, #191, .F. ) ;
#158 = ORIENTED_EDGE ( 'NONE', *, *, #1, .F. ) ;
#159 = EDGE_LOOP ( 'NONE', ( #132, #108, #140, #87 ) ) ;
#160 = CARTESIAN_POINT ( 'NONE',  ( -2999.500000000000500, 0.0000000000000000000, 0.0000000000000000000 ) ) ;
#161 = DIRECTION ( 'NONE',  ( 0.0000000000000000000, 0.0000000000000000000, -1.000000000000000000 ) ) ;
#162 = CARTESIAN_POINT ( 'NONE',  ( -2999.500000000000500, 1.530808498934191500E-015, 12.50000000000000000 ) ) ;
#163 = CARTESIAN_POINT ( 'NONE',  ( 3000.000000000000000, 0.0000000000000000000, 0.0000000000000000000 ) ) ;
#164 = DIRECTION ( 'NONE',  ( -0.7071067811860446400, 0.0000000000000000000, 0.7071067811870505000 ) ) ;
#165 = CARTESIAN_POINT ( 'NONE',  ( -2999.500000000000500, 0.0000000000000000000, 0.0000000000000000000 ) ) ;
#166 = DIRECTION ( 'NONE',  ( 1.000000000000000000, 0.0000000000000000000, 0.0000000000000000000 ) ) ;
#167 = DIRECTION ( 'NONE',  ( 1.000000000000000000, 0.0000000000000000000, 0.0000000000000000000 ) ) ;
#168 = CARTESIAN_POINT ( 'NONE',  ( 3000.000000000000000, 0.0000000000000000000, 11.99999999999867800 ) ) ;
#169 = CARTESIAN_POINT ( 'NONE',  ( -3000.000000000000000, 1.500192328955535500E-015, 12.00000000000045500 ) ) ;
#170 = DIRECTION ( 'NONE',  ( -1.000000000000000000, 0.0000000000000000000, 0.0000000000000000000 ) ) ;
#171 = CARTESIAN_POINT ( 'NONE',  ( -3000.000000000000000, 1.530808498934191500E-015, 12.50000000000000000 ) ) ;
#172 = CARTESIAN_POINT ( 'NONE',  ( 3000.000000000000000, 1.469576158976662000E-015, -11.99999999999867800 ) ) ;
#173 = CARTESIAN_POINT ( 'NONE',  ( 3000.000000000000000, 0.0000000000000000000, 11.99999999999867800 ) ) ;
#174 = DIRECTION ( 'NONE',  ( 0.0000000000000000000, 0.0000000000000000000, 1.000000000000000000 ) ) ;
#175 = DIRECTION ( 'NONE',  ( 1.000000000000000000, -0.0000000000000000000, -0.0000000000000000000 ) ) ;
#176 = CARTESIAN_POINT ( 'NONE',  ( 2999.499999999999500, 0.0000000000000000000, 0.0000000000000000000 ) ) ;
#177 = CARTESIAN_POINT ( 'NONE',  ( -3000.000000000000000, 0.0000000000000000000, -12.00000000000045500 ) ) ;
#178 = CARTESIAN_POINT ( 'NONE',  ( 3000.000000000000000, 0.0000000000000000000, 0.0000000000000000000 ) ) ;
#179 = DIRECTION ( 'NONE',  ( 1.000000000000000000, 0.0000000000000000000, 0.0000000000000000000 ) ) ;
#180 = DIRECTION ( 'NONE',  ( 1.000000000000000000, 0.0000000000000000000, 0.0000000000000000000 ) ) ;
#181 = CARTESIAN_POINT ( 'NONE',  ( 2999.499999999999500, 1.530808498934191500E-015, 12.50000000000000000 ) ) ;
#182 = CARTESIAN_POINT ( 'NONE',  ( 3000.000000000000000, 1.500192328955426900E-015, -11.99999999999867800 ) ) ;
#183 = DIRECTION ( 'NONE',  ( 0.0000000000000000000, 0.0000000000000000000, -1.000000000000000000 ) ) ;
#184 = DIRECTION ( 'NONE',  ( 0.0000000000000000000, 0.0000000000000000000, -1.000000000000000000 ) ) ;
#185 = DIRECTION ( 'NONE',  ( -0.7071067811860446400, 8.659560562361093400E-017, -0.7071067811870505000 ) ) ;
#186 = CARTESIAN_POINT ( 'NONE',  ( 2999.499999999999500, 0.0000000000000000000, -12.50000000000000000 ) ) ;
#187 = CARTESIAN_POINT ( 'NONE',  ( 2999.499999999999500, 0.0000000000000000000, 0.0000000000000000000 ) ) ;
#188 = DIRECTION ( 'NONE',  ( -1.000000000000000000, 0.0000000000000000000, 0.0000000000000000000 ) ) ;
#189 = EDGE_CURVE ( 'NONE', #18, #12, #95, .T. ) ;
#190 = EDGE_CURVE ( 'NONE', #26, #12, #94, .T. ) ;
#191 = EDGE_CURVE ( 'NONE', #27, #26, #99, .T. ) ;
#192 = CC_DESIGN_PERSON_AND_ORGANIZATION_ASSIGNMENT ( #133, #34, ( #263 ) ) ;
#193 = CC_DESIGN_PERSON_AND_ORGANIZATION_ASSIGNMENT ( #82, #39, ( #227 ) ) ;
#194 = APPROVAL ( #37, 'UNSPECIFIED' ) ;
#195 = AXIS2_PLACEMENT_3D ( 'NONE', #241, #242, #247 ) ;
#196 = EDGE_CURVE ( 'NONE', #22, #12, #92, .T. ) ;
#197 = AXIS2_PLACEMENT_3D ( 'NONE', #269, #264, #271 ) ;
#198 = APPROVAL ( #48, 'UNSPECIFIED' ) ;
#199 = CC_DESIGN_SECURITY_CLASSIFICATION ( #218, ( #216 ) ) ;
#200 = AXIS2_PLACEMENT_3D ( 'NONE', #267, #270, #266 ) ;
#201 = AXIS2_PLACEMENT_3D ( 'NONE', #178, #180, #184 ) ;
#202 = AXIS2_PLACEMENT_3D ( 'NONE', #275, #274, #179 ) ;
#203 = AXIS2_PLACEMENT_3D ( 'NONE', #165, #175, #183 ) ;
#204 = APPROVAL ( #41, 'UNSPECIFIED' ) ;
#205 = CC_DESIGN_DATE_AND_TIME_ASSIGNMENT ( #69, #40, ( #227 ) ) ;
#206 = AXIS2_PLACEMENT_3D ( 'NONE', #187, #188, #161 ) ;
#207 = EDGE_CURVE ( 'NONE', #23, #22, #150, .T. ) ;
#208 = AXIS2_PLACEMENT_3D ( 'NONE', #160, #252, #257 ) ;
#209 = AXIS2_PLACEMENT_3D ( 'NONE', #259, #254, #255 ) ;
#210 = CC_DESIGN_DATE_AND_TIME_ASSIGNMENT ( #70, #47, ( #218 ) ) ;
#211 = CC_DESIGN_APPROVAL ( #194, ( #227 ) ) ;
#212 = CC_DESIGN_PERSON_AND_ORGANIZATION_ASSIGNMENT ( #65, #44, ( #216 ) ) ;
#213 = AXIS2_PLACEMENT_3D ( 'NONE', #30, #19, #21 ) ;
#214 = CC_DESIGN_PERSON_AND_ORGANIZATION_ASSIGNMENT ( #115, #46, ( #218 ) ) ;
#215 = AXIS2_PLACEMENT_3D ( 'NONE', #163, #170, #174 ) ;
#216 = PRODUCT_DEFINITION_FORMATION_WITH_SPECIFIED_SOURCE ( 'ANY', '', #263, .NOT_KNOWN. ) ;
#217 = CC_DESIGN_APPROVAL ( #198, ( #218 ) ) ;
#218 = SECURITY_CLASSIFICATION ( '', '', #45 ) ;
#219 = CC_DESIGN_PERSON_AND_ORGANIZATION_ASSIGNMENT ( #75, #43, ( #216 ) ) ;
#220 = EDGE_CURVE ( 'NONE', #12, #18, #149, .T. ) ;
#221 = CC_DESIGN_APPROVAL ( #204, ( #216 ) ) ;
#222 = AXIS2_PLACEMENT_3D ( 'NONE', #243, #244, #246 ) ;
#223 = AXIS2_PLACEMENT_3D ( 'NONE', #248, #258, #261 ) ;
#224 = AXIS2_PLACEMENT_3D ( 'NONE', #245, #253, #250 ) ;
#225 = AXIS2_PLACEMENT_3D ( 'NONE', #176, #239, #251 ) ;
#226 = EDGE_CURVE ( 'NONE', #28, #22, #102, .T. ) ;
#227 = PRODUCT_DEFINITION ( 'UNKNOWN', '', #216, #231 ) ;
#228 = PRODUCT_RELATED_PRODUCT_CATEGORY ( 'detail', '', ( #263 ) ) ;
#229 = MANIFOLD_SOLID_BREP ( 'Chamfer1', #146 ) ;
#230 = PRODUCT_DEFINITION_SHAPE ( 'NONE', 'NONE',  #227 ) ;
#231 = DESIGN_CONTEXT ( 'detailed design', #35, 'design' ) ;
#232 = ADVANCED_FACE ( 'NONE', ( #60 ), #101, .T. ) ;
#233 = ADVANCED_FACE ( 'NONE', ( #96 ), #88, .T. ) ;
#234 = ADVANCED_FACE ( 'NONE', ( #62 ), #105, .T. ) ;
#235 = ADVANCED_FACE ( 'NONE', ( #148 ), #118, .T. ) ;
#236 = ADVANCED_FACE ( 'NONE', ( #151 ), #134, .T. ) ;
#237 = ADVANCED_FACE ( 'NONE', ( #63 ), #268, .F. ) ;
#238 = ADVANCED_FACE ( 'NONE', ( #103 ), #265, .T. ) ;
#239 = DIRECTION ( 'NONE',  ( -1.000000000000000000, 0.0000000000000000000, 0.0000000000000000000 ) ) ;
#240 =( NAMED_UNIT ( * ) PLANE_ANGLE_UNIT ( ) SI_UNIT ( $, .RADIAN. ) );
#241 = CARTESIAN_POINT ( 'NONE',  ( -3000.000000000000000, 0.0000000000000000000, 0.0000000000000000000 ) ) ;
#242 = DIRECTION ( 'NONE',  ( 1.000000000000000000, 0.0000000000000000000, 0.0000000000000000000 ) ) ;
#243 = CARTESIAN_POINT ( 'NONE',  ( -3000.000000000000000, 0.0000000000000000000, 0.0000000000000000000 ) ) ;
#244 = DIRECTION ( 'NONE',  ( 1.000000000000000000, 0.0000000000000000000, 0.0000000000000000000 ) ) ;
#245 = CARTESIAN_POINT ( 'NONE',  ( -2999.500000000000500, 0.0000000000000000000, 0.0000000000000000000 ) ) ;
#246 = DIRECTION ( 'NONE',  ( 0.0000000000000000000, 0.0000000000000000000, -1.000000000000000000 ) ) ;
#247 = DIRECTION ( 'NONE',  ( 0.0000000000000000000, 0.0000000000000000000, -1.000000000000000000 ) ) ;
#248 = CARTESIAN_POINT ( 'NONE',  ( -2999.500000000000500, 0.0000000000000000000, 0.0000000000000000000 ) ) ;
#249 =( LENGTH_UNIT ( ) NAMED_UNIT ( * ) SI_UNIT ( .MILLI., .METRE. ) );
#250 = DIRECTION ( 'NONE',  ( 0.0000000000000000000, 0.0000000000000000000, -1.000000000000000000 ) ) ;
#251 = DIRECTION ( 'NONE',  ( 0.0000000000000000000, 0.0000000000000000000, -1.000000000000000000 ) ) ;
#252 = DIRECTION ( 'NONE',  ( 1.000000000000000000, -0.0000000000000000000, -0.0000000000000000000 ) ) ;
#253 = DIRECTION ( 'NONE',  ( 1.000000000000000000, -0.0000000000000000000, -0.0000000000000000000 ) ) ;
#254 = DIRECTION ( 'NONE',  ( -1.000000000000000000, 0.0000000000000000000, 0.0000000000000000000 ) ) ;
#255 = DIRECTION ( 'NONE',  ( 0.0000000000000000000, 0.0000000000000000000, 1.000000000000000000 ) ) ;
#256 = DIRECTION ( 'NONE',  ( 0.7071067811866725800, 8.659560562353400700E-017, 0.7071067811864224500 ) ) ;
#257 = DIRECTION ( 'NONE',  ( 0.0000000000000000000, 0.0000000000000000000, -1.000000000000000000 ) ) ;
#258 = DIRECTION ( 'NONE',  ( 1.000000000000000000, -0.0000000000000000000, -0.0000000000000000000 ) ) ;
#259 = CARTESIAN_POINT ( 'NONE',  ( 3000.000000000000000, 0.0000000000000000000, 0.0000000000000000000 ) ) ;
#260 = CARTESIAN_POINT ( 'NONE',  ( -2999.500000000000500, 1.530808498934191500E-015, 12.50000000000000000 ) ) ;
#261 = DIRECTION ( 'NONE',  ( 0.0000000000000000000, 0.0000000000000000000, -1.000000000000000000 ) ) ;
#262 = PERSON ( 'UNSPECIFIED', 'UNSPECIFIED', 'UNSPECIFIED', ('UNSPECIFIED'), ('UNSPECIFIED'), ('UNSPECIFIED') ) ;
#263 = PRODUCT ( 'WRB25', 'WRB25', '', ( #33 ) ) ;
#264 = DIRECTION ( 'NONE',  ( 1.000000000000000000, 0.0000000000000000000, 0.0000000000000000000 ) ) ;
#265 = PLANE ( 'NONE',  #200 ) ;
#266 = DIRECTION ( 'NONE',  ( 0.0000000000000000000, 0.0000000000000000000, -1.000000000000000000 ) ) ;
#267 = CARTESIAN_POINT ( 'NONE',  ( 3000.000000000000000, 0.0000000000000000000, 0.0000000000000000000 ) ) ;
#268 = PLANE ( 'NONE',  #197 ) ;
#269 = CARTESIAN_POINT ( 'NONE',  ( -3000.000000000000000, 0.0000000000000000000, 0.0000000000000000000 ) ) ;
#270 = DIRECTION ( 'NONE',  ( 1.000000000000000000, 0.0000000000000000000, 0.0000000000000000000 ) ) ;
#271 = DIRECTION ( 'NONE',  ( 0.0000000000000000000, 0.0000000000000000000, -1.000000000000000000 ) ) ;
#272 = UNCERTAINTY_MEASURE_WITH_UNIT (LENGTH_MEASURE( 1.000000000000000100E-005 ), #249, 'distance_accuracy_value', 'NONE');
#273 = ADVANCED_BREP_SHAPE_REPRESENTATION ( 'WRB25', ( #229, #202 ), #116 ) ;
#274 = DIRECTION ( 'NONE',  ( 0.0000000000000000000, 0.0000000000000000000, 1.000000000000000000 ) ) ;
#275 = CARTESIAN_POINT ( 'NONE',  ( 0.0000000000000000000, 0.0000000000000000000, 0.0000000000000000000 ) ) ;
ENDSEC;
END-ISO-10303-21;
