ISO-10303-21;
HEADER;
FILE_DESCRIPTION (( 'STEP AP203' ),
    '1' );
FILE_NAME ('WRB16.STEP',
    '2014-08-06T09:55:38',
    ( 'Ovidiu Buiga' ),
    ( '' ),
    'SwSTEP 2.0',
    'SolidWorks 2010',
    '' );
FILE_SCHEMA (( 'CONFIG_CONTROL_DESIGN' ));
ENDSEC;

DATA;
#1 = PRODUCT_RELATED_PRODUCT_CATEGORY ( 'detail', '', ( #210 ) ) ;
#2 = CC_DESIGN_SECURITY_CLASSIFICATION ( #9, ( #15 ) ) ;
#3 = CC_DESIGN_APPROVAL ( #5, ( #9 ) ) ;
#4 = AXIS2_PLACEMENT_3D ( 'NONE', #169, #160, #56 ) ;
#5 = APPROVAL ( #274, 'UNSPECIFIED' ) ;
#6 = CC_DESIGN_DATE_AND_TIME_ASSIGNMENT ( #195, #273, ( #9 ) ) ;
#7 = EDGE_CURVE ( 'NONE', #172, #161, #129, .T. ) ;
#8 = CC_DESIGN_PERSON_AND_ORGANIZATION_ASSIGNMENT ( #185, #272, ( #9 ) ) ;
#9 = SECURITY_CLASSIFICATION ( '', '', #271 ) ;
#10 = CC_DESIGN_PERSON_AND_ORGANIZATION_ASSIGNMENT ( #178, #270, ( #15 ) ) ;
#11 = CC_DESIGN_PERSON_AND_ORGANIZATION_ASSIGNMENT ( #173, #269, ( #15 ) ) ;
#12 = CC_DESIGN_APPROVAL ( #14, ( #15 ) ) ;
#13 = EDGE_CURVE ( 'NONE', #166, #170, #148, .T. ) ;
#14 = APPROVAL ( #267, 'UNSPECIFIED' ) ;
#15 = PRODUCT_DEFINITION_FORMATION_WITH_SPECIFIED_SOURCE ( 'ANY', '', #210, .NOT_KNOWN. ) ;
#16 = CC_DESIGN_DATE_AND_TIME_ASSIGNMENT ( #196, #266, ( #23 ) ) ;
#17 = CC_DESIGN_PERSON_AND_ORGANIZATION_ASSIGNMENT ( #86, #265, ( #23 ) ) ;
#18 = EDGE_CURVE ( 'NONE', #158, #171, #125, .T. ) ;
#19 = EDGE_CURVE ( 'NONE', #161, #170, #124, .T. ) ;
#20 = CC_DESIGN_APPROVAL ( #21, ( #23 ) ) ;
#21 = APPROVAL ( #263, 'UNSPECIFIED' ) ;
#22 = EDGE_CURVE ( 'NONE', #162, #165, #123, .T. ) ;
#23 = PRODUCT_DEFINITION ( 'UNKNOWN', '', #15, #201 ) ;
#24 = CC_DESIGN_PERSON_AND_ORGANIZATION_ASSIGNMENT ( #80, #260, ( #210 ) ) ;
#25 = AXIS2_PLACEMENT_3D ( 'NONE', #242, #245, #244 ) ;
#26 = AXIS2_PLACEMENT_3D ( 'NONE', #254, #255, #256 ) ;
#27 = AXIS2_PLACEMENT_3D ( 'NONE', #241, #246, #247 ) ;
#28 = AXIS2_PLACEMENT_3D ( 'NONE', #234, #233, #229 ) ;
#29 = AXIS2_PLACEMENT_3D ( 'NONE', #232, #239, #240 ) ;
#30 = AXIS2_PLACEMENT_3D ( 'NONE', #235, #238, #237 ) ;
#31 = AXIS2_PLACEMENT_3D ( 'NONE', #231, #230, #220 ) ;
#32 = AXIS2_PLACEMENT_3D ( 'NONE', #251, #250, #248 ) ;
#33 = AXIS2_PLACEMENT_3D ( 'NONE', #228, #227, #226 ) ;
#34 = EDGE_CURVE ( 'NONE', #165, #162, #121, .T. ) ;
#35 = AXIS2_PLACEMENT_3D ( 'NONE', #74, #208, #207 ) ;
#36 = AXIS2_PLACEMENT_3D ( 'NONE', #59, #53, #52 ) ;
#37 = AXIS2_PLACEMENT_3D ( 'NONE', #61, #73, #60 ) ;
#38 = EDGE_CURVE ( 'NONE', #170, #158, #126, .T. ) ;
#39 = AXIS2_PLACEMENT_3D ( 'NONE', #199, #218, #219 ) ;
#40 = EDGE_CURVE ( 'NONE', #162, #171, #120, .T. ) ;
#41 = EDGE_CURVE ( 'NONE', #161, #171, #122, .T. ) ;
#42 = EDGE_CURVE ( 'NONE', #166, #172, #115, .T. ) ;
#43 = EDGE_CURVE ( 'NONE', #171, #158, #112, .T. ) ;
#44 = EDGE_CURVE ( 'NONE', #170, #161, #111, .T. ) ;
#45 = EDGE_CURVE ( 'NONE', #165, #158, #130, .T. ) ;
#46 = AXIS2_PLACEMENT_3D ( 'NONE', #167, #71, #70 ) ;
#47 = EDGE_CURVE ( 'NONE', #172, #166, #104, .T. ) ;
#48 = AXIS2_PLACEMENT_3D ( 'NONE', #54, #57, #58 ) ;
#49 = AXIS2_PLACEMENT_3D ( 'NONE', #69, #68, #67 ) ;
#50 = UNCERTAINTY_MEASURE_WITH_UNIT (LENGTH_MEASURE( 1.000000000000000100E-005 ), #249, 'distance_accuracy_value', 'NONE');
#51 = ADVANCED_BREP_SHAPE_REPRESENTATION ( 'WRB16', ( #198, #26 ), #83 ) ;
#52 = DIRECTION ( 'NONE',  ( 0.0000000000000000000, 0.0000000000000000000, -1.000000000000000000 ) ) ;
#53 = DIRECTION ( 'NONE',  ( -1.000000000000000000, 0.0000000000000000000, 0.0000000000000000000 ) ) ;
#54 = CARTESIAN_POINT ( 'NONE',  ( -2999.499999999999500, 0.0000000000000000000, 0.0000000000000000000 ) ) ;
#55 = CARTESIAN_POINT ( 'NONE',  ( 2999.500000000001400, 0.0000000000000000000, -8.000000000000000000 ) ) ;
#56 = DIRECTION ( 'NONE',  ( 0.0000000000000000000, 0.0000000000000000000, -1.000000000000000000 ) ) ;
#57 = DIRECTION ( 'NONE',  ( 1.000000000000000000, -0.0000000000000000000, -0.0000000000000000000 ) ) ;
#58 = DIRECTION ( 'NONE',  ( 0.0000000000000000000, 0.0000000000000000000, -1.000000000000000000 ) ) ;
#59 = CARTESIAN_POINT ( 'NONE',  ( 2999.500000000001400, 0.0000000000000000000, 0.0000000000000000000 ) ) ;
#60 = DIRECTION ( 'NONE',  ( 0.0000000000000000000, 0.0000000000000000000, -1.000000000000000000 ) ) ;
#61 = CARTESIAN_POINT ( 'NONE',  ( -3000.000000000000000, 0.0000000000000000000, 0.0000000000000000000 ) ) ;
#62 = DIRECTION ( 'NONE',  ( -0.7071067811859244000, 8.659560562362563900E-017, -0.7071067811871706300 ) ) ;
#63 = CARTESIAN_POINT ( 'NONE',  ( 3000.000000000000000, 9.184850993605497000E-016, -7.500000000000284200 ) ) ;
#64 = DIRECTION ( 'NONE',  ( 1.000000000000000000, 0.0000000000000000000, 0.0000000000000000000 ) ) ;
#65 = CARTESIAN_POINT ( 'NONE',  ( -3000.000000000000000, 9.797174393178825700E-016, 8.000000000000000000 ) ) ;
#66 = DIRECTION ( 'NONE',  ( 1.000000000000000000, 0.0000000000000000000, 0.0000000000000000000 ) ) ;
#67 = DIRECTION ( 'NONE',  ( 0.0000000000000000000, 0.0000000000000000000, -1.000000000000000000 ) ) ;
#68 = DIRECTION ( 'NONE',  ( 1.000000000000000000, 0.0000000000000000000, 0.0000000000000000000 ) ) ;
#69 = CARTESIAN_POINT ( 'NONE',  ( 3000.000000000000000, 0.0000000000000000000, 0.0000000000000000000 ) ) ;
#70 = DIRECTION ( 'NONE',  ( 0.0000000000000000000, 0.0000000000000000000, -1.000000000000000000 ) ) ;
#71 = DIRECTION ( 'NONE',  ( 1.000000000000000000, 0.0000000000000000000, 0.0000000000000000000 ) ) ;
#72 = CARTESIAN_POINT ( 'NONE',  ( -3000.000000000000000, 0.0000000000000000000, -8.000000000000000000 ) ) ;
#73 = DIRECTION ( 'NONE',  ( -1.000000000000000000, -0.0000000000000000000, -0.0000000000000000000 ) ) ;
#74 = CARTESIAN_POINT ( 'NONE',  ( -2999.499999999999500, 0.0000000000000000000, 0.0000000000000000000 ) ) ;
#75 = CALENDAR_DATE ( 2014, 6, 8 ) ;
#76 = LOCAL_TIME ( 12, 55, 38.00000000000000000, #77 ) ;
#77 = COORDINATED_UNIVERSAL_TIME_OFFSET ( 2, 0, .AHEAD. ) ;
#78 = APPROVAL_PERSON_ORGANIZATION ( #79, #21, #264 ) ;
#79 = PERSON_AND_ORGANIZATION ( #211, #81 ) ;
#80 = PERSON_AND_ORGANIZATION ( #211, #81 ) ;
#81 = ORGANIZATION ( 'UNSPECIFIED', 'UNSPECIFIED', '' ) ;
#82 = SHAPE_DEFINITION_REPRESENTATION ( #200, #51 ) ;
#83 =( GEOMETRIC_REPRESENTATION_CONTEXT ( 3 ) GLOBAL_UNCERTAINTY_ASSIGNED_CONTEXT ( ( #50 ) ) GLOBAL_UNIT_ASSIGNED_CONTEXT ( ( #249, #252, #253 ) ) REPRESENTATION_CONTEXT ( 'NONE', 'WORKASPACE' ) );
#84 = DATE_AND_TIME ( #75, #76 ) ;
#85 = APPROVAL_DATE_TIME ( #84, #21 ) ;
#86 = PERSON_AND_ORGANIZATION ( #211, #81 ) ;
#87 = EDGE_LOOP ( 'NONE', ( #92, #88, #153, #152 ) ) ;
#88 = ORIENTED_EDGE ( 'NONE', *, *, #47, .F. ) ;
#89 = EDGE_LOOP ( 'NONE', ( #157, #149, #105, #150 ) ) ;
#90 = EDGE_LOOP ( 'NONE', ( #142, #140, #141, #139 ) ) ;
#91 = ORIENTED_EDGE ( 'NONE', *, *, #22, .T. ) ;
#92 = ORIENTED_EDGE ( 'NONE', *, *, #13, .F. ) ;
#93 = EDGE_LOOP ( 'NONE', ( #133, #91 ) ) ;
#94 = CYLINDRICAL_SURFACE ( 'NONE', #32, 8.000000000000000000 ) ;
#95 = CONICAL_SURFACE ( 'NONE', #25, 8.000000000000000000, 0.7853981633965532200 ) ;
#96 = CYLINDRICAL_SURFACE ( 'NONE', #30, 8.000000000000000000 ) ;
#97 = FACE_OUTER_BOUND ( 'NONE', #106, .T. ) ;
#98 = CONICAL_SURFACE ( 'NONE', #28, 8.000000000000000000, 0.7853981633965532200 ) ;
#99 = FACE_OUTER_BOUND ( 'NONE', #90, .T. ) ;
#100 = CONICAL_SURFACE ( 'NONE', #31, 7.500000000000284200, 0.7853981633983295700 ) ;
#101 = FACE_OUTER_BOUND ( 'NONE', #93, .T. ) ;
#102 = FACE_OUTER_BOUND ( 'NONE', #155, .T. ) ;
#103 = EDGE_LOOP ( 'NONE', ( #147, #145, #144, #143 ) ) ;
#104 = CIRCLE ( 'NONE', #39, 7.500000000000284200 ) ;
#105 = ORIENTED_EDGE ( 'NONE', *, *, #41, .T. ) ;
#106 = EDGE_LOOP ( 'NONE', ( #138, #137, #136, #135 ) ) ;
#107 = VECTOR ( 'NONE', #64, 1000.000000000000000 ) ;
#108 = FACE_OUTER_BOUND ( 'NONE', #89, .T. ) ;
#109 = FACE_OUTER_BOUND ( 'NONE', #87, .T. ) ;
#110 = FACE_OUTER_BOUND ( 'NONE', #113, .T. ) ;
#111 = CIRCLE ( 'NONE', #35, 8.000000000000000000 ) ;
#112 = CIRCLE ( 'NONE', #36, 8.000000000000000000 ) ;
#113 = EDGE_LOOP ( 'NONE', ( #151, #154, #132, #131 ) ) ;
#114 = VECTOR ( 'NONE', #213, 1000.000000000000000 ) ;
#115 = CIRCLE ( 'NONE', #37, 7.500000000000284200 ) ;
#116 = CONICAL_SURFACE ( 'NONE', #33, 7.500000000000284200, 0.7853981633983295700 ) ;
#117 = FACE_OUTER_BOUND ( 'NONE', #103, .T. ) ;
#118 = VECTOR ( 'NONE', #66, 1000.000000000000000 ) ;
#119 = VECTOR ( 'NONE', #62, 1000.000000000000000 ) ;
#120 = LINE ( 'NONE', #63, #119 ) ;
#121 = CIRCLE ( 'NONE', #49, 7.500000000000284200 ) ;
#122 = LINE ( 'NONE', #72, #118 ) ;
#123 = CIRCLE ( 'NONE', #46, 7.500000000000284200 ) ;
#124 = CIRCLE ( 'NONE', #48, 8.000000000000000000 ) ;
#125 = CIRCLE ( 'NONE', #4, 8.000000000000000000 ) ;
#126 = LINE ( 'NONE', #65, #107 ) ;
#127 = VECTOR ( 'NONE', #159, 1000.000000000000100 ) ;
#128 = VECTOR ( 'NONE', #164, 1000.000000000000100 ) ;
#129 = LINE ( 'NONE', #168, #128 ) ;
#130 = LINE ( 'NONE', #214, #114 ) ;
#131 = ORIENTED_EDGE ( 'NONE', *, *, #43, .F. ) ;
#132 = ORIENTED_EDGE ( 'NONE', *, *, #45, .T. ) ;
#133 = ORIENTED_EDGE ( 'NONE', *, *, #34, .T. ) ;
#134 = ORIENTED_EDGE ( 'NONE', *, *, #42, .T. ) ;
#135 = ORIENTED_EDGE ( 'NONE', *, *, #41, .F. ) ;
#136 = ORIENTED_EDGE ( 'NONE', *, *, #18, .T. ) ;
#137 = ORIENTED_EDGE ( 'NONE', *, *, #38, .T. ) ;
#138 = ORIENTED_EDGE ( 'NONE', *, *, #19, .T. ) ;
#139 = ORIENTED_EDGE ( 'NONE', *, *, #7, .F. ) ;
#140 = ORIENTED_EDGE ( 'NONE', *, *, #13, .T. ) ;
#141 = ORIENTED_EDGE ( 'NONE', *, *, #19, .F. ) ;
#142 = ORIENTED_EDGE ( 'NONE', *, *, #42, .F. ) ;
#143 = ORIENTED_EDGE ( 'NONE', *, *, #45, .F. ) ;
#144 = ORIENTED_EDGE ( 'NONE', *, *, #18, .F. ) ;
#145 = ORIENTED_EDGE ( 'NONE', *, *, #40, .T. ) ;
#146 = CLOSED_SHELL ( 'NONE', ( #203, #216, #217, #206, #205, #215, #204, #202 ) ) ;
#147 = ORIENTED_EDGE ( 'NONE', *, *, #22, .F. ) ;
#148 = LINE ( 'NONE', #163, #127 ) ;
#149 = ORIENTED_EDGE ( 'NONE', *, *, #44, .T. ) ;
#150 = ORIENTED_EDGE ( 'NONE', *, *, #43, .T. ) ;
#151 = ORIENTED_EDGE ( 'NONE', *, *, #40, .F. ) ;
#152 = ORIENTED_EDGE ( 'NONE', *, *, #44, .F. ) ;
#153 = ORIENTED_EDGE ( 'NONE', *, *, #7, .T. ) ;
#154 = ORIENTED_EDGE ( 'NONE', *, *, #34, .F. ) ;
#155 = EDGE_LOOP ( 'NONE', ( #156, #134 ) ) ;
#156 = ORIENTED_EDGE ( 'NONE', *, *, #47, .T. ) ;
#157 = ORIENTED_EDGE ( 'NONE', *, *, #38, .F. ) ;
#158 = VERTEX_POINT ( 'NONE', #212 ) ;
#159 = DIRECTION ( 'NONE',  ( 0.7071067811871805100, 8.659560562347182300E-017, 0.7071067811859145200 ) ) ;
#160 = DIRECTION ( 'NONE',  ( -1.000000000000000000, 0.0000000000000000000, 0.0000000000000000000 ) ) ;
#161 = VERTEX_POINT ( 'NONE', #222 ) ;
#162 = VERTEX_POINT ( 'NONE', #221 ) ;
#163 = CARTESIAN_POINT ( 'NONE',  ( -2999.499999999999500, 9.797174393178825700E-016, 8.000000000000000000 ) ) ;
#164 = DIRECTION ( 'NONE',  ( 0.7071067811871805100, 0.0000000000000000000, -0.7071067811859145200 ) ) ;
#165 = VERTEX_POINT ( 'NONE', #223 ) ;
#166 = VERTEX_POINT ( 'NONE', #209 ) ;
#167 = CARTESIAN_POINT ( 'NONE',  ( 3000.000000000000000, 0.0000000000000000000, 0.0000000000000000000 ) ) ;
#168 = CARTESIAN_POINT ( 'NONE',  ( -2999.499999999999500, 0.0000000000000000000, -8.000000000000000000 ) ) ;
#169 = CARTESIAN_POINT ( 'NONE',  ( 2999.500000000001400, 0.0000000000000000000, 0.0000000000000000000 ) ) ;
#170 = VERTEX_POINT ( 'NONE', #224 ) ;
#171 = VERTEX_POINT ( 'NONE', #55 ) ;
#172 = VERTEX_POINT ( 'NONE', #225 ) ;
#173 = PERSON_AND_ORGANIZATION ( #211, #81 ) ;
#174 = APPROVAL_PERSON_ORGANIZATION ( #182, #5, #275 ) ;
#175 = CALENDAR_DATE ( 2014, 6, 8 ) ;
#176 = LOCAL_TIME ( 12, 55, 38.00000000000000000, #184 ) ;
#177 = COORDINATED_UNIVERSAL_TIME_OFFSET ( 2, 0, .AHEAD. ) ;
#178 = PERSON_AND_ORGANIZATION ( #211, #81 ) ;
#179 = CALENDAR_DATE ( 2014, 6, 8 ) ;
#180 = CALENDAR_DATE ( 2014, 6, 8 ) ;
#181 = LOCAL_TIME ( 12, 55, 38.00000000000000000, #177 ) ;
#182 = PERSON_AND_ORGANIZATION ( #211, #81 ) ;
#183 = LOCAL_TIME ( 12, 55, 38.00000000000000000, #186 ) ;
#184 = COORDINATED_UNIVERSAL_TIME_OFFSET ( 2, 0, .AHEAD. ) ;
#185 = PERSON_AND_ORGANIZATION ( #211, #81 ) ;
#186 = COORDINATED_UNIVERSAL_TIME_OFFSET ( 2, 0, .AHEAD. ) ;
#187 = APPROVAL_DATE_TIME ( #191, #14 ) ;
#188 = LOCAL_TIME ( 12, 55, 38.00000000000000000, #190 ) ;
#189 = CALENDAR_DATE ( 2014, 6, 8 ) ;
#190 = COORDINATED_UNIVERSAL_TIME_OFFSET ( 2, 0, .AHEAD. ) ;
#191 = DATE_AND_TIME ( #180, #183 ) ;
#192 = APPROVAL_DATE_TIME ( #193, #5 ) ;
#193 = DATE_AND_TIME ( #179, #188 ) ;
#194 = PERSON_AND_ORGANIZATION ( #211, #81 ) ;
#195 = DATE_AND_TIME ( #189, #181 ) ;
#196 = DATE_AND_TIME ( #175, #176 ) ;
#197 = APPROVAL_PERSON_ORGANIZATION ( #194, #14, #268 ) ;
#198 = MANIFOLD_SOLID_BREP ( 'Chamfer1', #146 ) ;
#199 = CARTESIAN_POINT ( 'NONE',  ( -3000.000000000000000, 0.0000000000000000000, 0.0000000000000000000 ) ) ;
#200 = PRODUCT_DEFINITION_SHAPE ( 'NONE', 'NONE',  #23 ) ;
#201 = DESIGN_CONTEXT ( 'detailed design', #261, 'design' ) ;
#202 = ADVANCED_FACE ( 'NONE', ( #110 ), #116, .T. ) ;
#203 = ADVANCED_FACE ( 'NONE', ( #117 ), #100, .T. ) ;
#204 = ADVANCED_FACE ( 'NONE', ( #109 ), #98, .T. ) ;
#205 = ADVANCED_FACE ( 'NONE', ( #102 ), #236, .F. ) ;
#206 = ADVANCED_FACE ( 'NONE', ( #108 ), #96, .T. ) ;
#207 = DIRECTION ( 'NONE',  ( 0.0000000000000000000, 0.0000000000000000000, -1.000000000000000000 ) ) ;
#208 = DIRECTION ( 'NONE',  ( 1.000000000000000000, -0.0000000000000000000, -0.0000000000000000000 ) ) ;
#209 = CARTESIAN_POINT ( 'NONE',  ( -3000.000000000000000, 9.491012693392161300E-016, 7.500000000000284200 ) ) ;
#210 = PRODUCT ( 'WRB16', 'WRB16', '', ( #259 ) ) ;
#211 = PERSON ( 'UNSPECIFIED', 'UNSPECIFIED', 'UNSPECIFIED', ('UNSPECIFIED'), ('UNSPECIFIED'), ('UNSPECIFIED') ) ;
#212 = CARTESIAN_POINT ( 'NONE',  ( 2999.500000000001400, 9.797174393178825700E-016, 8.000000000000000000 ) ) ;
#213 = DIRECTION ( 'NONE',  ( -0.7071067811859244000, 0.0000000000000000000, 0.7071067811871706300 ) ) ;
#214 = CARTESIAN_POINT ( 'NONE',  ( 3000.000000000000000, 0.0000000000000000000, 7.500000000000284200 ) ) ;
#215 = ADVANCED_FACE ( 'NONE', ( #101 ), #243, .T. ) ;
#216 = ADVANCED_FACE ( 'NONE', ( #99 ), #95, .T. ) ;
#217 = ADVANCED_FACE ( 'NONE', ( #97 ), #94, .T. ) ;
#218 = DIRECTION ( 'NONE',  ( -1.000000000000000000, -0.0000000000000000000, -0.0000000000000000000 ) ) ;
#219 = DIRECTION ( 'NONE',  ( 0.0000000000000000000, 0.0000000000000000000, -1.000000000000000000 ) ) ;
#220 = DIRECTION ( 'NONE',  ( 0.0000000000000000000, 0.0000000000000000000, 1.000000000000000000 ) ) ;
#221 = CARTESIAN_POINT ( 'NONE',  ( 3000.000000000000000, 9.491012693392161300E-016, -7.500000000000284200 ) ) ;
#222 = CARTESIAN_POINT ( 'NONE',  ( -2999.499999999999500, 0.0000000000000000000, -8.000000000000000000 ) ) ;
#223 = CARTESIAN_POINT ( 'NONE',  ( 3000.000000000000000, 0.0000000000000000000, 7.500000000000284200 ) ) ;
#224 = CARTESIAN_POINT ( 'NONE',  ( -2999.499999999999500, 9.797174393178825700E-016, 8.000000000000000000 ) ) ;
#225 = CARTESIAN_POINT ( 'NONE',  ( -3000.000000000000000, 0.0000000000000000000, -7.500000000000284200 ) ) ;
#226 = DIRECTION ( 'NONE',  ( 0.0000000000000000000, 0.0000000000000000000, 1.000000000000000000 ) ) ;
#227 = DIRECTION ( 'NONE',  ( -1.000000000000000000, 0.0000000000000000000, 0.0000000000000000000 ) ) ;
#228 = CARTESIAN_POINT ( 'NONE',  ( 3000.000000000000000, 0.0000000000000000000, 0.0000000000000000000 ) ) ;
#229 = DIRECTION ( 'NONE',  ( 0.0000000000000000000, 0.0000000000000000000, -1.000000000000000000 ) ) ;
#230 = DIRECTION ( 'NONE',  ( -1.000000000000000000, 0.0000000000000000000, 0.0000000000000000000 ) ) ;
#231 = CARTESIAN_POINT ( 'NONE',  ( 3000.000000000000000, 0.0000000000000000000, 0.0000000000000000000 ) ) ;
#232 = CARTESIAN_POINT ( 'NONE',  ( -3000.000000000000000, 0.0000000000000000000, 0.0000000000000000000 ) ) ;
#233 = DIRECTION ( 'NONE',  ( 1.000000000000000000, -0.0000000000000000000, -0.0000000000000000000 ) ) ;
#234 = CARTESIAN_POINT ( 'NONE',  ( -2999.499999999999500, 0.0000000000000000000, 0.0000000000000000000 ) ) ;
#235 = CARTESIAN_POINT ( 'NONE',  ( -3000.000000000000000, 0.0000000000000000000, 0.0000000000000000000 ) ) ;
#236 = PLANE ( 'NONE',  #29 ) ;
#237 = DIRECTION ( 'NONE',  ( 0.0000000000000000000, 0.0000000000000000000, -1.000000000000000000 ) ) ;
#238 = DIRECTION ( 'NONE',  ( 1.000000000000000000, 0.0000000000000000000, 0.0000000000000000000 ) ) ;
#239 = DIRECTION ( 'NONE',  ( 1.000000000000000000, 0.0000000000000000000, 0.0000000000000000000 ) ) ;
#240 = DIRECTION ( 'NONE',  ( 0.0000000000000000000, 0.0000000000000000000, -1.000000000000000000 ) ) ;
#241 = CARTESIAN_POINT ( 'NONE',  ( 3000.000000000000000, 0.0000000000000000000, 0.0000000000000000000 ) ) ;
#242 = CARTESIAN_POINT ( 'NONE',  ( -2999.499999999999500, 0.0000000000000000000, 0.0000000000000000000 ) ) ;
#243 = PLANE ( 'NONE',  #27 ) ;
#244 = DIRECTION ( 'NONE',  ( 0.0000000000000000000, 0.0000000000000000000, -1.000000000000000000 ) ) ;
#245 = DIRECTION ( 'NONE',  ( 1.000000000000000000, -0.0000000000000000000, -0.0000000000000000000 ) ) ;
#246 = DIRECTION ( 'NONE',  ( 1.000000000000000000, 0.0000000000000000000, 0.0000000000000000000 ) ) ;
#247 = DIRECTION ( 'NONE',  ( 0.0000000000000000000, 0.0000000000000000000, -1.000000000000000000 ) ) ;
#248 = DIRECTION ( 'NONE',  ( 0.0000000000000000000, 0.0000000000000000000, -1.000000000000000000 ) ) ;
#249 =( LENGTH_UNIT ( ) NAMED_UNIT ( * ) SI_UNIT ( .MILLI., .METRE. ) );
#250 = DIRECTION ( 'NONE',  ( 1.000000000000000000, 0.0000000000000000000, 0.0000000000000000000 ) ) ;
#251 = CARTESIAN_POINT ( 'NONE',  ( -3000.000000000000000, 0.0000000000000000000, 0.0000000000000000000 ) ) ;
#252 =( NAMED_UNIT ( * ) PLANE_ANGLE_UNIT ( ) SI_UNIT ( $, .RADIAN. ) );
#253 =( NAMED_UNIT ( * ) SI_UNIT ( $, .STERADIAN. ) SOLID_ANGLE_UNIT ( ) );
#254 = CARTESIAN_POINT ( 'NONE',  ( 0.0000000000000000000, 0.0000000000000000000, 0.0000000000000000000 ) ) ;
#255 = DIRECTION ( 'NONE',  ( 0.0000000000000000000, 0.0000000000000000000, 1.000000000000000000 ) ) ;
#256 = DIRECTION ( 'NONE',  ( 1.000000000000000000, 0.0000000000000000000, 0.0000000000000000000 ) ) ;
#257 = APPLICATION_CONTEXT ( 'configuration controlled 3d designs of mechanical parts and assemblies' ) ;
#258 = APPLICATION_PROTOCOL_DEFINITION ( 'international standard', 'config_control_design', 1994, #257 ) ;
#259 = MECHANICAL_CONTEXT ( 'NONE', #257, 'mechanical' ) ;
#260 = PERSON_AND_ORGANIZATION_ROLE ( 'design_owner' ) ;
#261 = APPLICATION_CONTEXT ( 'configuration controlled 3d designs of mechanical parts and assemblies' ) ;
#262 = APPLICATION_PROTOCOL_DEFINITION ( 'international standard', 'config_control_design', 1994, #261 ) ;
#263 = APPROVAL_STATUS ( 'not_yet_approved' ) ;
#264 = APPROVAL_ROLE ( '' ) ;
#265 = PERSON_AND_ORGANIZATION_ROLE ( 'creator' ) ;
#266 = DATE_TIME_ROLE ( 'creation_date' ) ;
#267 = APPROVAL_STATUS ( 'not_yet_approved' ) ;
#268 = APPROVAL_ROLE ( '' ) ;
#269 = PERSON_AND_ORGANIZATION_ROLE ( 'creator' ) ;
#270 = PERSON_AND_ORGANIZATION_ROLE ( 'design_supplier' ) ;
#271 = SECURITY_CLASSIFICATION_LEVEL ( 'unclassified' ) ;
#272 = PERSON_AND_ORGANIZATION_ROLE ( 'classification_officer' ) ;
#273 = DATE_TIME_ROLE ( 'classification_date' ) ;
#274 = APPROVAL_STATUS ( 'not_yet_approved' ) ;
#275 = APPROVAL_ROLE ( '' ) ;
ENDSEC;
END-ISO-10303-21;
