ISO-10303-21;
HEADER;
FILE_DESCRIPTION (( 'STEP AP203' ),
    '1' );
FILE_NAME ('WRB14.STEP',
    '2014-08-06T09:56:02',
    ( 'Ovidiu Buiga' ),
    ( '' ),
    'SwSTEP 2.0',
    'SolidWorks 2010',
    '' );
FILE_SCHEMA (( 'CONFIG_CONTROL_DESIGN' ));
ENDSEC;

DATA;
#1 = CC_DESIGN_SECURITY_CLASSIFICATION ( #15, ( #16 ) ) ;
#2 = CC_DESIGN_APPROVAL ( #8, ( #25 ) ) ;
#3 = CC_DESIGN_APPROVAL ( #11, ( #15 ) ) ;
#4 = CC_DESIGN_PERSON_AND_ORGANIZATION_ASSIGNMENT ( #105, #270, ( #16 ) ) ;
#5 = PRODUCT_RELATED_PRODUCT_CATEGORY ( 'detail', '', ( #223 ) ) ;
#6 = CC_DESIGN_APPROVAL ( #12, ( #16 ) ) ;
#7 = CC_DESIGN_DATE_AND_TIME_ASSIGNMENT ( #128, #273, ( #15 ) ) ;
#8 = APPROVAL ( #263, 'UNSPECIFIED' ) ;
#9 = CC_DESIGN_DATE_AND_TIME_ASSIGNMENT ( #175, #266, ( #25 ) ) ;
#10 = CC_DESIGN_PERSON_AND_ORGANIZATION_ASSIGNMENT ( #95, #272, ( #15 ) ) ;
#11 = APPROVAL ( #274, 'UNSPECIFIED' ) ;
#12 = APPROVAL ( #267, 'UNSPECIFIED' ) ;
#13 = CC_DESIGN_PERSON_AND_ORGANIZATION_ASSIGNMENT ( #177, #265, ( #25 ) ) ;
#14 = CC_DESIGN_PERSON_AND_ORGANIZATION_ASSIGNMENT ( #123, #269, ( #16 ) ) ;
#15 = SECURITY_CLASSIFICATION ( '', '', #271 ) ;
#16 = PRODUCT_DEFINITION_FORMATION_WITH_SPECIFIED_SOURCE ( 'ANY', '', #223, .NOT_KNOWN. ) ;
#17 = CC_DESIGN_PERSON_AND_ORGANIZATION_ASSIGNMENT ( #106, #260, ( #223 ) ) ;
#18 = AXIS2_PLACEMENT_3D ( 'NONE', #193, #56, #256 ) ;
#19 = AXIS2_PLACEMENT_3D ( 'NONE', #55, #57, #67 ) ;
#20 = AXIS2_PLACEMENT_3D ( 'NONE', #61, #70, #62 ) ;
#21 = AXIS2_PLACEMENT_3D ( 'NONE', #211, #204, #202 ) ;
#22 = AXIS2_PLACEMENT_3D ( 'NONE', #216, #218, #213 ) ;
#23 = AXIS2_PLACEMENT_3D ( 'NONE', #51, #54, #60 ) ;
#24 = AXIS2_PLACEMENT_3D ( 'NONE', #58, #65, #66 ) ;
#25 = PRODUCT_DEFINITION ( 'UNKNOWN', '', #16, #191 ) ;
#26 = AXIS2_PLACEMENT_3D ( 'NONE', #207, #210, #209 ) ;
#27 = AXIS2_PLACEMENT_3D ( 'NONE', #201, #220, #214 ) ;
#28 = AXIS2_PLACEMENT_3D ( 'NONE', #69, #64, #63 ) ;
#29 = AXIS2_PLACEMENT_3D ( 'NONE', #249, #245, #247 ) ;
#30 = AXIS2_PLACEMENT_3D ( 'NONE', #233, #238, #224 ) ;
#31 = AXIS2_PLACEMENT_3D ( 'NONE', #231, #221, #205 ) ;
#32 = EDGE_CURVE ( 'NONE', #196, #227, #174, .T. ) ;
#33 = EDGE_CURVE ( 'NONE', #226, #240, #178, .T. ) ;
#34 = EDGE_CURVE ( 'NONE', #195, #248, #186, .T. ) ;
#35 = EDGE_CURVE ( 'NONE', #226, #196, #176, .T. ) ;
#36 = EDGE_CURVE ( 'NONE', #237, #244, #136, .T. ) ;
#37 = EDGE_CURVE ( 'NONE', #195, #240, #97, .T. ) ;
#38 = EDGE_CURVE ( 'NONE', #248, #226, #142, .T. ) ;
#39 = EDGE_CURVE ( 'NONE', #248, #195, #150, .T. ) ;
#40 = EDGE_CURVE ( 'NONE', #237, #227, #184, .T. ) ;
#41 = EDGE_CURVE ( 'NONE', #244, #237, #157, .T. ) ;
#42 = EDGE_CURVE ( 'NONE', #240, #226, #153, .T. ) ;
#43 = EDGE_CURVE ( 'NONE', #227, #196, #166, .T. ) ;
#44 = EDGE_CURVE ( 'NONE', #244, #196, #160, .T. ) ;
#45 = AXIS2_PLACEMENT_3D ( 'NONE', #229, #243, #252 ) ;
#46 = EDGE_CURVE ( 'NONE', #240, #227, #151, .T. ) ;
#47 = AXIS2_PLACEMENT_3D ( 'NONE', #250, #206, #208 ) ;
#48 = AXIS2_PLACEMENT_3D ( 'NONE', #241, #251, #253 ) ;
#49 = AXIS2_PLACEMENT_3D ( 'NONE', #239, #242, #232 ) ;
#50 =( NAMED_UNIT ( * ) SI_UNIT ( $, .STERADIAN. ) SOLID_ANGLE_UNIT ( ) );
#51 = CARTESIAN_POINT ( 'NONE',  ( -3000.000000000000000, 0.0000000000000000000, 0.0000000000000000000 ) ) ;
#52 = CARTESIAN_POINT ( 'NONE',  ( 2999.499999999999500, 0.0000000000000000000, -7.000000000000000000 ) ) ;
#53 = CARTESIAN_POINT ( 'NONE',  ( -3000.000000000000000, 8.266365894244604800E-016, 6.499999999999950300 ) ) ;
#54 = DIRECTION ( 'NONE',  ( 1.000000000000000000, 0.0000000000000000000, 0.0000000000000000000 ) ) ;
#55 = CARTESIAN_POINT ( 'NONE',  ( -2999.500000000000000, 0.0000000000000000000, 0.0000000000000000000 ) ) ;
#56 = DIRECTION ( 'NONE',  ( 0.0000000000000000000, 0.0000000000000000000, 1.000000000000000000 ) ) ;
#57 = DIRECTION ( 'NONE',  ( 1.000000000000000000, -0.0000000000000000000, -0.0000000000000000000 ) ) ;
#58 = CARTESIAN_POINT ( 'NONE',  ( -3000.000000000000000, 0.0000000000000000000, 0.0000000000000000000 ) ) ;
#59 = PLANE ( 'NONE',  #24 ) ;
#60 = DIRECTION ( 'NONE',  ( 0.0000000000000000000, 0.0000000000000000000, -1.000000000000000000 ) ) ;
#61 = CARTESIAN_POINT ( 'NONE',  ( 3000.000000000000000, 0.0000000000000000000, 0.0000000000000000000 ) ) ;
#62 = DIRECTION ( 'NONE',  ( 0.0000000000000000000, 0.0000000000000000000, 1.000000000000000000 ) ) ;
#63 = DIRECTION ( 'NONE',  ( 0.0000000000000000000, 0.0000000000000000000, -1.000000000000000000 ) ) ;
#64 = DIRECTION ( 'NONE',  ( 1.000000000000000000, 0.0000000000000000000, 0.0000000000000000000 ) ) ;
#65 = DIRECTION ( 'NONE',  ( 1.000000000000000000, 0.0000000000000000000, 0.0000000000000000000 ) ) ;
#66 = DIRECTION ( 'NONE',  ( 0.0000000000000000000, 0.0000000000000000000, -1.000000000000000000 ) ) ;
#67 = DIRECTION ( 'NONE',  ( 0.0000000000000000000, 0.0000000000000000000, -1.000000000000000000 ) ) ;
#68 = CARTESIAN_POINT ( 'NONE',  ( -2999.500000000000000, 0.0000000000000000000, -7.000000000000000000 ) ) ;
#69 = CARTESIAN_POINT ( 'NONE',  ( -3000.000000000000000, 0.0000000000000000000, 0.0000000000000000000 ) ) ;
#70 = DIRECTION ( 'NONE',  ( -1.000000000000000000, 0.0000000000000000000, 0.0000000000000000000 ) ) ;
#71 = CARTESIAN_POINT ( 'NONE',  ( 3000.000000000000000, 0.0000000000000000000, 6.499999999999062100 ) ) ;
#72 = CARTESIAN_POINT ( 'NONE',  ( 2999.499999999999500, 8.572527594031473200E-016, 7.000000000000000000 ) ) ;
#73 = ADVANCED_FACE ( 'NONE', ( #102 ), #81, .T. ) ;
#74 = ADVANCED_FACE ( 'NONE', ( #126 ), #203, .T. ) ;
#75 = CARTESIAN_POINT ( 'NONE',  ( -2999.500000000000000, 8.572527594031473200E-016, 7.000000000000000000 ) ) ;
#76 = ADVANCED_FACE ( 'NONE', ( #88 ), #94, .T. ) ;
#78 = ADVANCED_FACE ( 'NONE', ( #90 ), #108, .T. ) ;
#77 = CARTESIAN_POINT ( 'NONE',  ( 3000.000000000000000, 8.266365894244060400E-016, -6.499999999999062100 ) ) ;
#79 = ORIENTED_EDGE ( 'NONE', *, *, #42, .T. ) ;
#80 = COORDINATED_UNIVERSAL_TIME_OFFSET ( 2, 0, .AHEAD. ) ;
#81 = CONICAL_SURFACE ( 'NONE', #22, 7.000000000000000000, 0.7853981633973311500 ) ;
#82 = ORIENTED_EDGE ( 'NONE', *, *, #35, .F. ) ;
#83 = VECTOR ( 'NONE', #234, 1000.000000000000100 ) ;
#84 = ORIENTED_EDGE ( 'NONE', *, *, #43, .F. ) ;
#85 = ORIENTED_EDGE ( 'NONE', *, *, #33, .F. ) ;
#86 = LOCAL_TIME ( 12, 56, 2.000000000000000000, #80 ) ;
#87 = ORIENTED_EDGE ( 'NONE', *, *, #32, .T. ) ;
#88 = FACE_OUTER_BOUND ( 'NONE', #139, .T. ) ;
#89 = PERSON_AND_ORGANIZATION ( #222, #170 ) ;
#90 = FACE_OUTER_BOUND ( 'NONE', #163, .T. ) ;
#91 = COORDINATED_UNIVERSAL_TIME_OFFSET ( 2, 0, .AHEAD. ) ;
#92 = FACE_OUTER_BOUND ( 'NONE', #147, .T. ) ;
#93 = ORIENTED_EDGE ( 'NONE', *, *, #41, .F. ) ;
#94 = CONICAL_SURFACE ( 'NONE', #21, 6.499999999999062100, 0.7853981633977753500 ) ;
#95 = PERSON_AND_ORGANIZATION ( #222, #170 ) ;
#96 = ORIENTED_EDGE ( 'NONE', *, *, #44, .F. ) ;
#97 = LINE ( 'NONE', #194, #121 ) ;
#98 = ORIENTED_EDGE ( 'NONE', *, *, #38, .T. ) ;
#99 = ORIENTED_EDGE ( 'NONE', *, *, #33, .T. ) ;
#100 = ORIENTED_EDGE ( 'NONE', *, *, #38, .F. ) ;
#101 = FACE_OUTER_BOUND ( 'NONE', #169, .T. ) ;
#102 = FACE_OUTER_BOUND ( 'NONE', #162, .T. ) ;
#103 = APPROVAL_DATE_TIME ( #125, #8 ) ;
#104 = ORIENTED_EDGE ( 'NONE', *, *, #43, .T. ) ;
#105 = PERSON_AND_ORGANIZATION ( #222, #170 ) ;
#106 = PERSON_AND_ORGANIZATION ( #222, #170 ) ;
#107 = DATE_AND_TIME ( #132, #172 ) ;
#108 = CYLINDRICAL_SURFACE ( 'NONE', #23, 7.000000000000000000 ) ;
#109 = FACE_OUTER_BOUND ( 'NONE', #145, .T. ) ;
#110 = PERSON_AND_ORGANIZATION ( #222, #170 ) ;
#111 = DATE_AND_TIME ( #116, #185 ) ;
#112 = CONICAL_SURFACE ( 'NONE', #20, 6.499999999999062100, 0.7853981633977753500 ) ;
#113 = ORIENTED_EDGE ( 'NONE', *, *, #39, .F. ) ;
#114 = ORIENTED_EDGE ( 'NONE', *, *, #37, .F. ) ;
#115 = APPROVAL_DATE_TIME ( #107, #12 ) ;
#116 = CALENDAR_DATE ( 2014, 6, 8 ) ;
#117 = ORIENTED_EDGE ( 'NONE', *, *, #37, .T. ) ;
#118 = APPROVAL_DATE_TIME ( #111, #11 ) ;
#119 = ORIENTED_EDGE ( 'NONE', *, *, #40, .F. ) ;
#120 = ORIENTED_EDGE ( 'NONE', *, *, #34, .F. ) ;
#121 = VECTOR ( 'NONE', #235, 1000.000000000000100 ) ;
#122 = LOCAL_TIME ( 12, 56, 2.000000000000000000, #159 ) ;
#123 = PERSON_AND_ORGANIZATION ( #222, #170 ) ;
#124 = ORIENTED_EDGE ( 'NONE', *, *, #40, .T. ) ;
#125 = DATE_AND_TIME ( #173, #122 ) ;
#126 = FACE_OUTER_BOUND ( 'NONE', #167, .T. ) ;
#127 = CYLINDRICAL_SURFACE ( 'NONE', #28, 7.000000000000000000 ) ;
#128 = DATE_AND_TIME ( #148, #86 ) ;
#129 = APPROVAL_PERSON_ORGANIZATION ( #89, #11, #275 ) ;
#130 = CONICAL_SURFACE ( 'NONE', #19, 7.000000000000000000, 0.7853981633973311500 ) ;
#131 = ORIENTED_EDGE ( 'NONE', *, *, #32, .F. ) ;
#132 = CALENDAR_DATE ( 2014, 6, 8 ) ;
#133 = COORDINATED_UNIVERSAL_TIME_OFFSET ( 2, 0, .AHEAD. ) ;
#134 = CALENDAR_DATE ( 2014, 6, 8 ) ;
#135 = LOCAL_TIME ( 12, 56, 2.000000000000000000, #91 ) ;
#136 = CIRCLE ( 'NONE', #30, 6.499999999999062100 ) ;
#137 = ORIENTED_EDGE ( 'NONE', *, *, #41, .T. ) ;
#138 = APPROVAL_PERSON_ORGANIZATION ( #144, #8, #264 ) ;
#139 = EDGE_LOOP ( 'NONE', ( #96, #164, #124, #131 ) ) ;
#140 = ORIENTED_EDGE ( 'NONE', *, *, #34, .T. ) ;
#141 = ORIENTED_EDGE ( 'NONE', *, *, #46, .F. ) ;
#142 = LINE ( 'NONE', #246, #83 ) ;
#143 = VECTOR ( 'NONE', #225, 1000.000000000000000 ) ;
#144 = PERSON_AND_ORGANIZATION ( #222, #170 ) ;
#145 = EDGE_LOOP ( 'NONE', ( #149, #140 ) ) ;
#146 = ORIENTED_EDGE ( 'NONE', *, *, #35, .T. ) ;
#147 = EDGE_LOOP ( 'NONE', ( #141, #79, #146, #87 ) ) ;
#148 = CALENDAR_DATE ( 2014, 6, 8 ) ;
#149 = ORIENTED_EDGE ( 'NONE', *, *, #39, .T. ) ;
#150 = CIRCLE ( 'NONE', #29, 6.499999999999950300 ) ;
#151 = LINE ( 'NONE', #219, #165 ) ;
#152 = VECTOR ( 'NONE', #212, 1000.000000000000000 ) ;
#153 = CIRCLE ( 'NONE', #47, 7.000000000000000000 ) ;
#154 = EDGE_LOOP ( 'NONE', ( #93, #155, #84, #119 ) ) ;
#155 = ORIENTED_EDGE ( 'NONE', *, *, #44, .T. ) ;
#156 = APPROVAL_PERSON_ORGANIZATION ( #110, #12, #268 ) ;
#157 = CIRCLE ( 'NONE', #31, 6.499999999999062100 ) ;
#158 = ORIENTED_EDGE ( 'NONE', *, *, #36, .T. ) ;
#159 = COORDINATED_UNIVERSAL_TIME_OFFSET ( 2, 0, .AHEAD. ) ;
#160 = LINE ( 'NONE', #215, #152 ) ;
#161 = COORDINATED_UNIVERSAL_TIME_OFFSET ( 2, 0, .AHEAD. ) ;
#162 = EDGE_LOOP ( 'NONE', ( #120, #117, #85, #100 ) ) ;
#163 = EDGE_LOOP ( 'NONE', ( #99, #181, #104, #82 ) ) ;
#164 = ORIENTED_EDGE ( 'NONE', *, *, #36, .F. ) ;
#165 = VECTOR ( 'NONE', #217, 1000.000000000000000 ) ;
#166 = CIRCLE ( 'NONE', #27, 7.000000000000000000 ) ;
#167 = EDGE_LOOP ( 'NONE', ( #158, #137 ) ) ;
#168 =( GEOMETRIC_REPRESENTATION_CONTEXT ( 3 ) GLOBAL_UNCERTAINTY_ASSIGNED_CONTEXT ( ( #254 ) ) GLOBAL_UNIT_ASSIGNED_CONTEXT ( ( #189, #187, #50 ) ) REPRESENTATION_CONTEXT ( 'NONE', 'WORKASPACE' ) );
#169 = EDGE_LOOP ( 'NONE', ( #114, #113, #98, #171 ) ) ;
#170 = ORGANIZATION ( 'UNSPECIFIED', 'UNSPECIFIED', '' ) ;
#171 = ORIENTED_EDGE ( 'NONE', *, *, #42, .F. ) ;
#172 = LOCAL_TIME ( 12, 56, 2.000000000000000000, #161 ) ;
#173 = CALENDAR_DATE ( 2014, 6, 8 ) ;
#174 = CIRCLE ( 'NONE', #48, 7.000000000000000000 ) ;
#175 = DATE_AND_TIME ( #134, #135 ) ;
#176 = LINE ( 'NONE', #228, #143 ) ;
#177 = PERSON_AND_ORGANIZATION ( #222, #170 ) ;
#178 = CIRCLE ( 'NONE', #49, 7.000000000000000000 ) ;
#179 = SHAPE_DEFINITION_REPRESENTATION ( #190, #255 ) ;
#180 = VECTOR ( 'NONE', #236, 1000.000000000000000 ) ;
#181 = ORIENTED_EDGE ( 'NONE', *, *, #46, .T. ) ;
#182 = FACE_OUTER_BOUND ( 'NONE', #154, .T. ) ;
#183 = CLOSED_SHELL ( 'NONE', ( #197, #73, #78, #199, #198, #74, #200, #76 ) ) ;
#184 = LINE ( 'NONE', #230, #180 ) ;
#185 = LOCAL_TIME ( 12, 56, 2.000000000000000000, #133 ) ;
#186 = CIRCLE ( 'NONE', #45, 6.499999999999950300 ) ;
#187 =( NAMED_UNIT ( * ) PLANE_ANGLE_UNIT ( ) SI_UNIT ( $, .RADIAN. ) );
#188 = CARTESIAN_POINT ( 'NONE',  ( -3000.000000000000000, 0.0000000000000000000, -6.499999999999950300 ) ) ;
#189 =( LENGTH_UNIT ( ) NAMED_UNIT ( * ) SI_UNIT ( .MILLI., .METRE. ) );
#190 = PRODUCT_DEFINITION_SHAPE ( 'NONE', 'NONE',  #25 ) ;
#191 = DESIGN_CONTEXT ( 'detailed design', #261, 'design' ) ;
#192 = MANIFOLD_SOLID_BREP ( 'Chamfer1', #183 ) ;
#193 = CARTESIAN_POINT ( 'NONE',  ( 0.0000000000000000000, 0.0000000000000000000, 0.0000000000000000000 ) ) ;
#194 = CARTESIAN_POINT ( 'NONE',  ( -2999.500000000000000, 8.572527594031473200E-016, 7.000000000000000000 ) ) ;
#195 = VERTEX_POINT ( 'NONE', #53 ) ;
#196 = VERTEX_POINT ( 'NONE', #52 ) ;
#197 = ADVANCED_FACE ( 'NONE', ( #182 ), #112, .T. ) ;
#198 = ADVANCED_FACE ( 'NONE', ( #109 ), #59, .F. ) ;
#199 = ADVANCED_FACE ( 'NONE', ( #92 ), #127, .T. ) ;
#200 = ADVANCED_FACE ( 'NONE', ( #101 ), #130, .T. ) ;
#201 = CARTESIAN_POINT ( 'NONE',  ( 2999.499999999999500, 0.0000000000000000000, 0.0000000000000000000 ) ) ;
#202 = DIRECTION ( 'NONE',  ( 0.0000000000000000000, 0.0000000000000000000, 1.000000000000000000 ) ) ;
#203 = PLANE ( 'NONE',  #26 ) ;
#204 = DIRECTION ( 'NONE',  ( -1.000000000000000000, 0.0000000000000000000, 0.0000000000000000000 ) ) ;
#205 = DIRECTION ( 'NONE',  ( 0.0000000000000000000, 0.0000000000000000000, -1.000000000000000000 ) ) ;
#206 = DIRECTION ( 'NONE',  ( 1.000000000000000000, -0.0000000000000000000, -0.0000000000000000000 ) ) ;
#207 = CARTESIAN_POINT ( 'NONE',  ( 3000.000000000000000, 0.0000000000000000000, 0.0000000000000000000 ) ) ;
#208 = DIRECTION ( 'NONE',  ( 0.0000000000000000000, 0.0000000000000000000, -1.000000000000000000 ) ) ;
#209 = DIRECTION ( 'NONE',  ( 0.0000000000000000000, 0.0000000000000000000, -1.000000000000000000 ) ) ;
#210 = DIRECTION ( 'NONE',  ( 1.000000000000000000, 0.0000000000000000000, 0.0000000000000000000 ) ) ;
#211 = CARTESIAN_POINT ( 'NONE',  ( 3000.000000000000000, 0.0000000000000000000, 0.0000000000000000000 ) ) ;
#212 = DIRECTION ( 'NONE',  ( -0.7071067811863163100, 8.659560562357765400E-017, -0.7071067811867788300 ) ) ;
#213 = DIRECTION ( 'NONE',  ( 0.0000000000000000000, 0.0000000000000000000, -1.000000000000000000 ) ) ;
#214 = DIRECTION ( 'NONE',  ( 0.0000000000000000000, 0.0000000000000000000, -1.000000000000000000 ) ) ;
#215 = CARTESIAN_POINT ( 'NONE',  ( 3000.000000000000000, 7.960204194456647700E-016, -6.499999999999062100 ) ) ;
#216 = CARTESIAN_POINT ( 'NONE',  ( -2999.500000000000000, 0.0000000000000000000, 0.0000000000000000000 ) ) ;
#217 = DIRECTION ( 'NONE',  ( 1.000000000000000000, 0.0000000000000000000, 0.0000000000000000000 ) ) ;
#218 = DIRECTION ( 'NONE',  ( 1.000000000000000000, -0.0000000000000000000, -0.0000000000000000000 ) ) ;
#219 = CARTESIAN_POINT ( 'NONE',  ( -3000.000000000000000, 8.572527594031473200E-016, 7.000000000000000000 ) ) ;
#220 = DIRECTION ( 'NONE',  ( -1.000000000000000000, 0.0000000000000000000, 0.0000000000000000000 ) ) ;
#221 = DIRECTION ( 'NONE',  ( 1.000000000000000000, 0.0000000000000000000, 0.0000000000000000000 ) ) ;
#222 = PERSON ( 'UNSPECIFIED', 'UNSPECIFIED', 'UNSPECIFIED', ('UNSPECIFIED'), ('UNSPECIFIED'), ('UNSPECIFIED') ) ;
#223 = PRODUCT ( 'WRB14', 'WRB14', '', ( #259 ) ) ;
#224 = DIRECTION ( 'NONE',  ( 0.0000000000000000000, 0.0000000000000000000, -1.000000000000000000 ) ) ;
#225 = DIRECTION ( 'NONE',  ( 1.000000000000000000, 0.0000000000000000000, 0.0000000000000000000 ) ) ;
#226 = VERTEX_POINT ( 'NONE', #68 ) ;
#227 = VERTEX_POINT ( 'NONE', #72 ) ;
#228 = CARTESIAN_POINT ( 'NONE',  ( -3000.000000000000000, 0.0000000000000000000, -7.000000000000000000 ) ) ;
#229 = CARTESIAN_POINT ( 'NONE',  ( -3000.000000000000000, 0.0000000000000000000, 0.0000000000000000000 ) ) ;
#230 = CARTESIAN_POINT ( 'NONE',  ( 3000.000000000000000, 0.0000000000000000000, 6.499999999999062100 ) ) ;
#231 = CARTESIAN_POINT ( 'NONE',  ( 3000.000000000000000, 0.0000000000000000000, 0.0000000000000000000 ) ) ;
#232 = DIRECTION ( 'NONE',  ( 0.0000000000000000000, 0.0000000000000000000, -1.000000000000000000 ) ) ;
#233 = CARTESIAN_POINT ( 'NONE',  ( 3000.000000000000000, 0.0000000000000000000, 0.0000000000000000000 ) ) ;
#234 = DIRECTION ( 'NONE',  ( 0.7071067811866304000, 0.0000000000000000000, -0.7071067811864647500 ) ) ;
#235 = DIRECTION ( 'NONE',  ( 0.7071067811866304000, 8.659560562353918400E-017, 0.7071067811864647500 ) ) ;
#236 = DIRECTION ( 'NONE',  ( -0.7071067811863163100, 0.0000000000000000000, 0.7071067811867788300 ) ) ;
#237 = VERTEX_POINT ( 'NONE', #71 ) ;
#238 = DIRECTION ( 'NONE',  ( 1.000000000000000000, 0.0000000000000000000, 0.0000000000000000000 ) ) ;
#239 = CARTESIAN_POINT ( 'NONE',  ( -2999.500000000000000, 0.0000000000000000000, 0.0000000000000000000 ) ) ;
#240 = VERTEX_POINT ( 'NONE', #75 ) ;
#241 = CARTESIAN_POINT ( 'NONE',  ( 2999.499999999999500, 0.0000000000000000000, 0.0000000000000000000 ) ) ;
#242 = DIRECTION ( 'NONE',  ( 1.000000000000000000, -0.0000000000000000000, -0.0000000000000000000 ) ) ;
#243 = DIRECTION ( 'NONE',  ( -1.000000000000000000, -0.0000000000000000000, -0.0000000000000000000 ) ) ;
#244 = VERTEX_POINT ( 'NONE', #77 ) ;
#245 = DIRECTION ( 'NONE',  ( -1.000000000000000000, -0.0000000000000000000, -0.0000000000000000000 ) ) ;
#246 = CARTESIAN_POINT ( 'NONE',  ( -2999.500000000000000, 0.0000000000000000000, -7.000000000000000000 ) ) ;
#247 = DIRECTION ( 'NONE',  ( 0.0000000000000000000, 0.0000000000000000000, -1.000000000000000000 ) ) ;
#248 = VERTEX_POINT ( 'NONE', #188 ) ;
#249 = CARTESIAN_POINT ( 'NONE',  ( -3000.000000000000000, 0.0000000000000000000, 0.0000000000000000000 ) ) ;
#250 = CARTESIAN_POINT ( 'NONE',  ( -2999.500000000000000, 0.0000000000000000000, 0.0000000000000000000 ) ) ;
#251 = DIRECTION ( 'NONE',  ( -1.000000000000000000, 0.0000000000000000000, 0.0000000000000000000 ) ) ;
#252 = DIRECTION ( 'NONE',  ( 0.0000000000000000000, 0.0000000000000000000, -1.000000000000000000 ) ) ;
#253 = DIRECTION ( 'NONE',  ( 0.0000000000000000000, 0.0000000000000000000, -1.000000000000000000 ) ) ;
#254 = UNCERTAINTY_MEASURE_WITH_UNIT (LENGTH_MEASURE( 1.000000000000000100E-005 ), #189, 'distance_accuracy_value', 'NONE');
#255 = ADVANCED_BREP_SHAPE_REPRESENTATION ( 'WRB14', ( #192, #18 ), #168 ) ;
#256 = DIRECTION ( 'NONE',  ( 1.000000000000000000, 0.0000000000000000000, 0.0000000000000000000 ) ) ;
#257 = APPLICATION_CONTEXT ( 'configuration controlled 3d designs of mechanical parts and assemblies' ) ;
#258 = APPLICATION_PROTOCOL_DEFINITION ( 'international standard', 'config_control_design', 1994, #257 ) ;
#259 = MECHANICAL_CONTEXT ( 'NONE', #257, 'mechanical' ) ;
#260 = PERSON_AND_ORGANIZATION_ROLE ( 'design_owner' ) ;
#261 = APPLICATION_CONTEXT ( 'configuration controlled 3d designs of mechanical parts and assemblies' ) ;
#262 = APPLICATION_PROTOCOL_DEFINITION ( 'international standard', 'config_control_design', 1994, #261 ) ;
#263 = APPROVAL_STATUS ( 'not_yet_approved' ) ;
#264 = APPROVAL_ROLE ( '' ) ;
#265 = PERSON_AND_ORGANIZATION_ROLE ( 'creator' ) ;
#266 = DATE_TIME_ROLE ( 'creation_date' ) ;
#267 = APPROVAL_STATUS ( 'not_yet_approved' ) ;
#268 = APPROVAL_ROLE ( '' ) ;
#269 = PERSON_AND_ORGANIZATION_ROLE ( 'creator' ) ;
#270 = PERSON_AND_ORGANIZATION_ROLE ( 'design_supplier' ) ;
#271 = SECURITY_CLASSIFICATION_LEVEL ( 'unclassified' ) ;
#272 = PERSON_AND_ORGANIZATION_ROLE ( 'classification_officer' ) ;
#273 = DATE_TIME_ROLE ( 'classification_date' ) ;
#274 = APPROVAL_STATUS ( 'not_yet_approved' ) ;
#275 = APPROVAL_ROLE ( '' ) ;
ENDSEC;
END-ISO-10303-21;
