ISO-10303-21;
HEADER;
FILE_DESCRIPTION (( 'STEP AP203' ),
    '1' );
FILE_NAME ('WRB12.STEP',
    '2014-08-06T09:56:25',
    ( 'Ovidiu Buiga' ),
    ( '' ),
    'SwSTEP 2.0',
    'SolidWorks 2010',
    '' );
FILE_SCHEMA (( 'CONFIG_CONTROL_DESIGN' ));
ENDSEC;

DATA;
#1 = EDGE_CURVE ( 'NONE', #106, #109, #48, .T. ) ;
#2 = EDGE_CURVE ( 'NONE', #109, #97, #128, .T. ) ;
#3 = EDGE_CURVE ( 'NONE', #96, #100, #91, .T. ) ;
#4 = AXIS2_PLACEMENT_3D ( 'NONE', #217, #223, #222 ) ;
#5 = EDGE_CURVE ( 'NONE', #104, #96, #88, .T. ) ;
#6 = AXIS2_PLACEMENT_3D ( 'NONE', #95, #220, #218 ) ;
#7 = EDGE_CURVE ( 'NONE', #104, #97, #58, .T. ) ;
#8 = EDGE_CURVE ( 'NONE', #106, #103, #43, .T. ) ;
#9 = ADVANCED_FACE ( 'NONE', ( #55 ), #224, .F. ) ;
#10 = ADVANCED_FACE ( 'NONE', ( #45 ), #36, .T. ) ;
#11 = ADVANCED_FACE ( 'NONE', ( #37 ), #30, .T. ) ;
#12 = ADVANCED_FACE ( 'NONE', ( #93 ), #75, .T. ) ;
#13 = ADVANCED_FACE ( 'NONE', ( #40 ), #81, .T. ) ;
#14 = ADVANCED_FACE ( 'NONE', ( #56 ), #80, .T. ) ;
#15 = ADVANCED_FACE ( 'NONE', ( #31 ), #78, .T. ) ;
#16 = ADVANCED_FACE ( 'NONE', ( #44 ), #248, .T. ) ;
#17 =( NAMED_UNIT ( * ) PLANE_ANGLE_UNIT ( ) SI_UNIT ( $, .RADIAN. ) );
#18 = DIRECTION ( 'NONE',  ( 0.0000000000000000000, 0.0000000000000000000, -1.000000000000000000 ) ) ;
#19 =( LENGTH_UNIT ( ) NAMED_UNIT ( * ) SI_UNIT ( .MILLI., .METRE. ) );
#20 = DIRECTION ( 'NONE',  ( 1.000000000000000000, -0.0000000000000000000, -0.0000000000000000000 ) ) ;
#21 = VECTOR ( 'NONE', #98, 1000.000000000000100 ) ;
#22 = PERSON_AND_ORGANIZATION ( #214, #28 ) ;
#23 = LOCAL_TIME ( 12, 56, 25.00000000000000000, #25 ) ;
#24 = ORIENTED_EDGE ( 'NONE', *, *, #8, .F. ) ;
#25 = COORDINATED_UNIVERSAL_TIME_OFFSET ( 2, 0, .AHEAD. ) ;
#26 = SHAPE_DEFINITION_REPRESENTATION ( #191, #216 ) ;
#27 = LINE ( 'NONE', #202, #92 ) ;
#28 = ORGANIZATION ( 'UNSPECIFIED', 'UNSPECIFIED', '' ) ;
#29 = PERSON_AND_ORGANIZATION ( #214, #28 ) ;
#30 = CONICAL_SURFACE ( 'NONE', #182, 5.500000000000504500, 0.7853981633972220200 ) ;
#31 = FACE_OUTER_BOUND ( 'NONE', #111, .T. ) ;
#32 = CALENDAR_DATE ( 2014, 6, 8 ) ;
#33 = CIRCLE ( 'NONE', #151, 6.000000000000000900 ) ;
#34 = CALENDAR_DATE ( 2014, 6, 8 ) ;
#35 =( GEOMETRIC_REPRESENTATION_CONTEXT ( 3 ) GLOBAL_UNCERTAINTY_ASSIGNED_CONTEXT ( ( #215 ) ) GLOBAL_UNIT_ASSIGNED_CONTEXT ( ( #19, #17, #145 ) ) REPRESENTATION_CONTEXT ( 'NONE', 'WORKASPACE' ) );
#36 = CONICAL_SURFACE ( 'NONE', #164, 6.000000000000000900, 0.7853981633981099700 ) ;
#37 = FACE_OUTER_BOUND ( 'NONE', #120, .T. ) ;
#38 = DATE_AND_TIME ( #34, #50 ) ;
#39 = COORDINATED_UNIVERSAL_TIME_OFFSET ( 2, 0, .AHEAD. ) ;
#40 = FACE_OUTER_BOUND ( 'NONE', #140, .T. ) ;
#41 = VECTOR ( 'NONE', #210, 1000.000000000000100 ) ;
#42 = PERSON_AND_ORGANIZATION ( #214, #28 ) ;
#43 = CIRCLE ( 'NONE', #4, 5.499999999997840000 ) ;
#44 = FACE_OUTER_BOUND ( 'NONE', #116, .T. ) ;
#45 = FACE_OUTER_BOUND ( 'NONE', #112, .T. ) ;
#46 = APPROVAL_DATE_TIME ( #38, #161 ) ;
#47 = ORIENTED_EDGE ( 'NONE', *, *, #7, .F. ) ;
#48 = LINE ( 'NONE', #101, #21 ) ;
#49 = PERSON_AND_ORGANIZATION ( #214, #28 ) ;
#50 = LOCAL_TIME ( 12, 56, 25.00000000000000000, #51 ) ;
#51 = COORDINATED_UNIVERSAL_TIME_OFFSET ( 2, 0, .AHEAD. ) ;
#52 = PERSON_AND_ORGANIZATION ( #214, #28 ) ;
#53 = LOCAL_TIME ( 12, 56, 25.00000000000000000, #54 ) ;
#54 = COORDINATED_UNIVERSAL_TIME_OFFSET ( 2, 0, .AHEAD. ) ;
#55 = FACE_OUTER_BOUND ( 'NONE', #133, .T. ) ;
#56 = FACE_OUTER_BOUND ( 'NONE', #115, .T. ) ;
#57 = CALENDAR_DATE ( 2014, 6, 8 ) ;
#58 = LINE ( 'NONE', #108, #60 ) ;
#59 = LINE ( 'NONE', #211, #41 ) ;
#60 = VECTOR ( 'NONE', #221, 1000.000000000000000 ) ;
#61 = APPROVAL_PERSON_ORGANIZATION ( #49, #160, #239 ) ;
#62 = PERSON_AND_ORGANIZATION ( #214, #28 ) ;
#63 = APPROVAL_PERSON_ORGANIZATION ( #62, #161, #246 ) ;
#64 = PERSON_AND_ORGANIZATION ( #214, #28 ) ;
#65 = PERSON_AND_ORGANIZATION ( #214, #28 ) ;
#66 = CIRCLE ( 'NONE', #178, 5.499999999997840000 ) ;
#67 = LOCAL_TIME ( 12, 56, 25.00000000000000000, #39 ) ;
#68 = LOCAL_TIME ( 12, 56, 25.00000000000000000, #76 ) ;
#69 = DATE_AND_TIME ( #82, #67 ) ;
#70 = APPROVAL_DATE_TIME ( #69, #160 ) ;
#71 = APPROVAL_PERSON_ORGANIZATION ( #42, #172, #235 ) ;
#72 = ORIENTED_EDGE ( 'NONE', *, *, #1, .T. ) ;
#73 = DATE_AND_TIME ( #57, #53 ) ;
#74 = ORIENTED_EDGE ( 'NONE', *, *, #186, .F. ) ;
#75 = CYLINDRICAL_SURFACE ( 'NONE', #183, 6.000000000000000900 ) ;
#76 = COORDINATED_UNIVERSAL_TIME_OFFSET ( 2, 0, .AHEAD. ) ;
#77 = VECTOR ( 'NONE', #99, 1000.000000000000000 ) ;
#78 = CYLINDRICAL_SURFACE ( 'NONE', #184, 6.000000000000000900 ) ;
#79 = CIRCLE ( 'NONE', #181, 6.000000000000000900 ) ;
#80 = CONICAL_SURFACE ( 'NONE', #185, 5.500000000000504500, 0.7853981633972220200 ) ;
#81 = CONICAL_SURFACE ( 'NONE', #188, 6.000000000000000900, 0.7853981633981099700 ) ;
#82 = CALENDAR_DATE ( 2014, 6, 8 ) ;
#83 = CIRCLE ( 'NONE', #149, 6.000000000000000900 ) ;
#84 = DATE_AND_TIME ( #32, #68 ) ;
#85 = CIRCLE ( 'NONE', #179, 6.000000000000000900 ) ;
#86 = CALENDAR_DATE ( 2014, 6, 8 ) ;
#87 = DATE_AND_TIME ( #86, #23 ) ;
#88 = CIRCLE ( 'NONE', #6, 5.500000000000504500 ) ;
#89 = APPROVAL_DATE_TIME ( #87, #172 ) ;
#90 = CIRCLE ( 'NONE', #180, 5.500000000000504500 ) ;
#91 = LINE ( 'NONE', #105, #77 ) ;
#92 = VECTOR ( 'NONE', #201, 1000.000000000000000 ) ;
#93 = FACE_OUTER_BOUND ( 'NONE', #141, .T. ) ;
#94 = DIRECTION ( 'NONE',  ( 1.000000000000000000, 0.0000000000000000000, 0.0000000000000000000 ) ) ;
#95 = CARTESIAN_POINT ( 'NONE',  ( 3000.000000000000000, 0.0000000000000000000, 0.0000000000000000000 ) ) ;
#96 = VERTEX_POINT ( 'NONE', #274 ) ;
#97 = VERTEX_POINT ( 'NONE', #275 ) ;
#98 = DIRECTION ( 'NONE',  ( 0.7071067811860795000, 0.0000000000000000000, -0.7071067811870154200 ) ) ;
#99 = DIRECTION ( 'NONE',  ( -0.7071067811867075600, 0.0000000000000000000, 0.7071067811863874800 ) ) ;
#100 = VERTEX_POINT ( 'NONE', #258 ) ;
#101 = CARTESIAN_POINT ( 'NONE',  ( -2999.499999999998600, 0.0000000000000000000, -6.000000000000000900 ) ) ;
#102 = CARTESIAN_POINT ( 'NONE',  ( -3000.000000000000000, 0.0000000000000000000, -6.000000000000000900 ) ) ;
#103 = VERTEX_POINT ( 'NONE', #195 ) ;
#104 = VERTEX_POINT ( 'NONE', #259 ) ;
#105 = CARTESIAN_POINT ( 'NONE',  ( 3000.000000000000000, 0.0000000000000000000, 5.500000000000504500 ) ) ;
#106 = VERTEX_POINT ( 'NONE', #196 ) ;
#107 = VERTEX_POINT ( 'NONE', #260 ) ;
#108 = CARTESIAN_POINT ( 'NONE',  ( 3000.000000000000000, 6.735557395311060300E-016, -5.500000000000504500 ) ) ;
#109 = VERTEX_POINT ( 'NONE', #197 ) ;
#110 = ORIENTED_EDGE ( 'NONE', *, *, #157, .T. ) ;
#111 = EDGE_LOOP ( 'NONE', ( #136, #138, #122, #110 ) ) ;
#112 = EDGE_LOOP ( 'NONE', ( #124, #139, #134, #135 ) ) ;
#113 = ORIENTED_EDGE ( 'NONE', *, *, #167, .F. ) ;
#114 = ORIENTED_EDGE ( 'NONE', *, *, #8, .T. ) ;
#115 = EDGE_LOOP ( 'NONE', ( #47, #130, #119, #126 ) ) ;
#116 = EDGE_LOOP ( 'NONE', ( #121, #142 ) ) ;
#117 = ORIENTED_EDGE ( 'NONE', *, *, #5, .F. ) ;
#118 = VECTOR ( 'NONE', #94, 1000.000000000000000 ) ;
#119 = ORIENTED_EDGE ( 'NONE', *, *, #3, .T. ) ;
#120 = EDGE_LOOP ( 'NONE', ( #117, #131, #113, #144 ) ) ;
#121 = ORIENTED_EDGE ( 'NONE', *, *, #154, .T. ) ;
#122 = ORIENTED_EDGE ( 'NONE', *, *, #2, .T. ) ;
#123 = ORIENTED_EDGE ( 'NONE', *, *, #155, .T. ) ;
#124 = ORIENTED_EDGE ( 'NONE', *, *, #189, .F. ) ;
#125 = ORIENTED_EDGE ( 'NONE', *, *, #162, .F. ) ;
#126 = ORIENTED_EDGE ( 'NONE', *, *, #157, .F. ) ;
#127 = CLOSED_SHELL ( 'NONE', ( #11, #10, #12, #15, #9, #16, #13, #14 ) ) ;
#128 = LINE ( 'NONE', #102, #118 ) ;
#129 = ORIENTED_EDGE ( 'NONE', *, *, #189, .T. ) ;
#130 = ORIENTED_EDGE ( 'NONE', *, *, #154, .F. ) ;
#131 = ORIENTED_EDGE ( 'NONE', *, *, #7, .T. ) ;
#132 = ORIENTED_EDGE ( 'NONE', *, *, #158, .T. ) ;
#133 = EDGE_LOOP ( 'NONE', ( #114, #129 ) ) ;
#134 = ORIENTED_EDGE ( 'NONE', *, *, #158, .F. ) ;
#135 = ORIENTED_EDGE ( 'NONE', *, *, #1, .F. ) ;
#136 = ORIENTED_EDGE ( 'NONE', *, *, #155, .F. ) ;
#137 = ORIENTED_EDGE ( 'NONE', *, *, #2, .F. ) ;
#138 = ORIENTED_EDGE ( 'NONE', *, *, #186, .T. ) ;
#139 = ORIENTED_EDGE ( 'NONE', *, *, #162, .T. ) ;
#140 = EDGE_LOOP ( 'NONE', ( #125, #24, #72, #74 ) ) ;
#141 = EDGE_LOOP ( 'NONE', ( #132, #123, #143, #137 ) ) ;
#142 = ORIENTED_EDGE ( 'NONE', *, *, #5, .T. ) ;
#143 = ORIENTED_EDGE ( 'NONE', *, *, #167, .T. ) ;
#144 = ORIENTED_EDGE ( 'NONE', *, *, #3, .F. ) ;
#145 =( NAMED_UNIT ( * ) SI_UNIT ( $, .STERADIAN. ) SOLID_ANGLE_UNIT ( ) );
#146 = DIRECTION ( 'NONE',  ( 0.0000000000000000000, 0.0000000000000000000, -1.000000000000000000 ) ) ;
#147 = DIRECTION ( 'NONE',  ( -1.000000000000000000, -0.0000000000000000000, -0.0000000000000000000 ) ) ;
#148 = MANIFOLD_SOLID_BREP ( 'Chamfer1', #127 ) ;
#149 = AXIS2_PLACEMENT_3D ( 'NONE', #212, #20, #18 ) ;
#150 = PRODUCT_RELATED_PRODUCT_CATEGORY ( 'detail', '', ( #213 ) ) ;
#151 = AXIS2_PLACEMENT_3D ( 'NONE', #200, #199, #198 ) ;
#152 = CC_DESIGN_SECURITY_CLASSIFICATION ( #168, ( #170 ) ) ;
#153 = AXIS2_PLACEMENT_3D ( 'NONE', #225, #226, #227 ) ;
#154 = EDGE_CURVE ( 'NONE', #96, #104, #90, .T. ) ;
#155 = EDGE_CURVE ( 'NONE', #107, #100, #27, .T. ) ;
#156 = CC_DESIGN_APPROVAL ( #161, ( #168 ) ) ;
#157 = EDGE_CURVE ( 'NONE', #97, #100, #33, .T. ) ;
#158 = EDGE_CURVE ( 'NONE', #109, #107, #85, .T. ) ;
#159 = CC_DESIGN_APPROVAL ( #160, ( #170 ) ) ;
#160 = APPROVAL ( #238, 'UNSPECIFIED' ) ;
#161 = APPROVAL ( #245, 'UNSPECIFIED' ) ;
#162 = EDGE_CURVE ( 'NONE', #103, #107, #59, .T. ) ;
#163 = CC_DESIGN_DATE_AND_TIME_ASSIGNMENT ( #73, #244, ( #168 ) ) ;
#164 = AXIS2_PLACEMENT_3D ( 'NONE', #247, #265, #255 ) ;
#165 = CC_DESIGN_DATE_AND_TIME_ASSIGNMENT ( #84, #237, ( #176 ) ) ;
#166 = CC_DESIGN_PERSON_AND_ORGANIZATION_ASSIGNMENT ( #52, #243, ( #168 ) ) ;
#167 = EDGE_CURVE ( 'NONE', #100, #97, #79, .T. ) ;
#168 = SECURITY_CLASSIFICATION ( '', '', #242 ) ;
#169 = CC_DESIGN_APPROVAL ( #172, ( #176 ) ) ;
#170 = PRODUCT_DEFINITION_FORMATION_WITH_SPECIFIED_SOURCE ( 'ANY', '', #213, .NOT_KNOWN. ) ;
#171 = CC_DESIGN_PERSON_AND_ORGANIZATION_ASSIGNMENT ( #29, #236, ( #176 ) ) ;
#172 = APPROVAL ( #234, 'UNSPECIFIED' ) ;
#173 = CC_DESIGN_PERSON_AND_ORGANIZATION_ASSIGNMENT ( #65, #241, ( #170 ) ) ;
#174 = CC_DESIGN_PERSON_AND_ORGANIZATION_ASSIGNMENT ( #64, #240, ( #170 ) ) ;
#175 = AXIS2_PLACEMENT_3D ( 'NONE', #252, #263, #264 ) ;
#176 = PRODUCT_DEFINITION ( 'UNKNOWN', '', #170, #190 ) ;
#177 = CC_DESIGN_PERSON_AND_ORGANIZATION_ASSIGNMENT ( #22, #231, ( #213 ) ) ;
#178 = AXIS2_PLACEMENT_3D ( 'NONE', #208, #147, #146 ) ;
#179 = AXIS2_PLACEMENT_3D ( 'NONE', #203, #194, #207 ) ;
#180 = AXIS2_PLACEMENT_3D ( 'NONE', #205, #206, #204 ) ;
#181 = AXIS2_PLACEMENT_3D ( 'NONE', #209, #193, #192 ) ;
#182 = AXIS2_PLACEMENT_3D ( 'NONE', #271, #254, #251 ) ;
#183 = AXIS2_PLACEMENT_3D ( 'NONE', #249, #261, #262 ) ;
#184 = AXIS2_PLACEMENT_3D ( 'NONE', #253, #266, #270 ) ;
#185 = AXIS2_PLACEMENT_3D ( 'NONE', #267, #269, #250 ) ;
#186 = EDGE_CURVE ( 'NONE', #107, #109, #83, .T. ) ;
#187 = AXIS2_PLACEMENT_3D ( 'NONE', #219, #256, #257 ) ;
#188 = AXIS2_PLACEMENT_3D ( 'NONE', #272, #273, #268 ) ;
#189 = EDGE_CURVE ( 'NONE', #103, #106, #66, .T. ) ;
#190 = DESIGN_CONTEXT ( 'detailed design', #232, 'design' ) ;
#191 = PRODUCT_DEFINITION_SHAPE ( 'NONE', 'NONE',  #176 ) ;
#192 = DIRECTION ( 'NONE',  ( 0.0000000000000000000, 0.0000000000000000000, -1.000000000000000000 ) ) ;
#193 = DIRECTION ( 'NONE',  ( -1.000000000000000000, 0.0000000000000000000, 0.0000000000000000000 ) ) ;
#194 = DIRECTION ( 'NONE',  ( 1.000000000000000000, -0.0000000000000000000, -0.0000000000000000000 ) ) ;
#195 = CARTESIAN_POINT ( 'NONE',  ( -3000.000000000000000, 7.041719095095958600E-016, 5.499999999997840000 ) ) ;
#196 = CARTESIAN_POINT ( 'NONE',  ( -3000.000000000000000, 0.0000000000000000000, -5.499999999997840000 ) ) ;
#197 = CARTESIAN_POINT ( 'NONE',  ( -2999.499999999998600, 0.0000000000000000000, -6.000000000000000900 ) ) ;
#198 = DIRECTION ( 'NONE',  ( 0.0000000000000000000, 0.0000000000000000000, -1.000000000000000000 ) ) ;
#199 = DIRECTION ( 'NONE',  ( -1.000000000000000000, 0.0000000000000000000, 0.0000000000000000000 ) ) ;
#200 = CARTESIAN_POINT ( 'NONE',  ( 2999.500000000000500, 0.0000000000000000000, 0.0000000000000000000 ) ) ;
#201 = DIRECTION ( 'NONE',  ( 1.000000000000000000, 0.0000000000000000000, 0.0000000000000000000 ) ) ;
#202 = CARTESIAN_POINT ( 'NONE',  ( -3000.000000000000000, 7.347880794884120700E-016, 6.000000000000000900 ) ) ;
#203 = CARTESIAN_POINT ( 'NONE',  ( -2999.499999999998600, 0.0000000000000000000, 0.0000000000000000000 ) ) ;
#204 = DIRECTION ( 'NONE',  ( 0.0000000000000000000, 0.0000000000000000000, -1.000000000000000000 ) ) ;
#205 = CARTESIAN_POINT ( 'NONE',  ( 3000.000000000000000, 0.0000000000000000000, 0.0000000000000000000 ) ) ;
#206 = DIRECTION ( 'NONE',  ( 1.000000000000000000, 0.0000000000000000000, 0.0000000000000000000 ) ) ;
#207 = DIRECTION ( 'NONE',  ( 0.0000000000000000000, 0.0000000000000000000, -1.000000000000000000 ) ) ;
#208 = CARTESIAN_POINT ( 'NONE',  ( -3000.000000000000000, 0.0000000000000000000, 0.0000000000000000000 ) ) ;
#209 = CARTESIAN_POINT ( 'NONE',  ( 2999.500000000000500, 0.0000000000000000000, 0.0000000000000000000 ) ) ;
#210 = DIRECTION ( 'NONE',  ( 0.7071067811860795000, 8.659560562360663200E-017, 0.7071067811870154200 ) ) ;
#211 = CARTESIAN_POINT ( 'NONE',  ( -2999.499999999998600, 7.347880794884120700E-016, 6.000000000000000900 ) ) ;
#212 = CARTESIAN_POINT ( 'NONE',  ( -2999.499999999998600, 0.0000000000000000000, 0.0000000000000000000 ) ) ;
#213 = PRODUCT ( 'WRB12', 'WRB12', '', ( #230 ) ) ;
#214 = PERSON ( 'UNSPECIFIED', 'UNSPECIFIED', 'UNSPECIFIED', ('UNSPECIFIED'), ('UNSPECIFIED'), ('UNSPECIFIED') ) ;
#215 = UNCERTAINTY_MEASURE_WITH_UNIT (LENGTH_MEASURE( 1.000000000000000100E-005 ), #19, 'distance_accuracy_value', 'NONE');
#216 = ADVANCED_BREP_SHAPE_REPRESENTATION ( 'WRB12', ( #148, #153 ), #35 ) ;
#217 = CARTESIAN_POINT ( 'NONE',  ( -3000.000000000000000, 0.0000000000000000000, 0.0000000000000000000 ) ) ;
#218 = DIRECTION ( 'NONE',  ( 0.0000000000000000000, 0.0000000000000000000, -1.000000000000000000 ) ) ;
#219 = CARTESIAN_POINT ( 'NONE',  ( -3000.000000000000000, 0.0000000000000000000, 0.0000000000000000000 ) ) ;
#220 = DIRECTION ( 'NONE',  ( 1.000000000000000000, 0.0000000000000000000, 0.0000000000000000000 ) ) ;
#221 = DIRECTION ( 'NONE',  ( -0.7071067811867075600, 8.659560562352973000E-017, -0.7071067811863874800 ) ) ;
#222 = DIRECTION ( 'NONE',  ( 0.0000000000000000000, 0.0000000000000000000, -1.000000000000000000 ) ) ;
#223 = DIRECTION ( 'NONE',  ( -1.000000000000000000, -0.0000000000000000000, -0.0000000000000000000 ) ) ;
#224 = PLANE ( 'NONE',  #187 ) ;
#225 = CARTESIAN_POINT ( 'NONE',  ( 0.0000000000000000000, 0.0000000000000000000, 0.0000000000000000000 ) ) ;
#226 = DIRECTION ( 'NONE',  ( 0.0000000000000000000, 0.0000000000000000000, 1.000000000000000000 ) ) ;
#227 = DIRECTION ( 'NONE',  ( 1.000000000000000000, 0.0000000000000000000, 0.0000000000000000000 ) ) ;
#228 = APPLICATION_CONTEXT ( 'configuration controlled 3d designs of mechanical parts and assemblies' ) ;
#229 = APPLICATION_PROTOCOL_DEFINITION ( 'international standard', 'config_control_design', 1994, #228 ) ;
#230 = MECHANICAL_CONTEXT ( 'NONE', #228, 'mechanical' ) ;
#231 = PERSON_AND_ORGANIZATION_ROLE ( 'design_owner' ) ;
#232 = APPLICATION_CONTEXT ( 'configuration controlled 3d designs of mechanical parts and assemblies' ) ;
#233 = APPLICATION_PROTOCOL_DEFINITION ( 'international standard', 'config_control_design', 1994, #232 ) ;
#234 = APPROVAL_STATUS ( 'not_yet_approved' ) ;
#235 = APPROVAL_ROLE ( '' ) ;
#236 = PERSON_AND_ORGANIZATION_ROLE ( 'creator' ) ;
#237 = DATE_TIME_ROLE ( 'creation_date' ) ;
#238 = APPROVAL_STATUS ( 'not_yet_approved' ) ;
#239 = APPROVAL_ROLE ( '' ) ;
#240 = PERSON_AND_ORGANIZATION_ROLE ( 'creator' ) ;
#241 = PERSON_AND_ORGANIZATION_ROLE ( 'design_supplier' ) ;
#242 = SECURITY_CLASSIFICATION_LEVEL ( 'unclassified' ) ;
#243 = PERSON_AND_ORGANIZATION_ROLE ( 'classification_officer' ) ;
#244 = DATE_TIME_ROLE ( 'classification_date' ) ;
#245 = APPROVAL_STATUS ( 'not_yet_approved' ) ;
#246 = APPROVAL_ROLE ( '' ) ;
#247 = CARTESIAN_POINT ( 'NONE',  ( -2999.499999999998600, 0.0000000000000000000, 0.0000000000000000000 ) ) ;
#248 = PLANE ( 'NONE',  #175 ) ;
#249 = CARTESIAN_POINT ( 'NONE',  ( -3000.000000000000000, 0.0000000000000000000, 0.0000000000000000000 ) ) ;
#250 = DIRECTION ( 'NONE',  ( 0.0000000000000000000, 0.0000000000000000000, 1.000000000000000000 ) ) ;
#251 = DIRECTION ( 'NONE',  ( 0.0000000000000000000, 0.0000000000000000000, 1.000000000000000000 ) ) ;
#252 = CARTESIAN_POINT ( 'NONE',  ( 3000.000000000000000, 0.0000000000000000000, 0.0000000000000000000 ) ) ;
#253 = CARTESIAN_POINT ( 'NONE',  ( -3000.000000000000000, 0.0000000000000000000, 0.0000000000000000000 ) ) ;
#254 = DIRECTION ( 'NONE',  ( -1.000000000000000000, 0.0000000000000000000, 0.0000000000000000000 ) ) ;
#255 = DIRECTION ( 'NONE',  ( 0.0000000000000000000, 0.0000000000000000000, -1.000000000000000000 ) ) ;
#256 = DIRECTION ( 'NONE',  ( 1.000000000000000000, 0.0000000000000000000, 0.0000000000000000000 ) ) ;
#257 = DIRECTION ( 'NONE',  ( 0.0000000000000000000, 0.0000000000000000000, -1.000000000000000000 ) ) ;
#258 = CARTESIAN_POINT ( 'NONE',  ( 2999.500000000000500, 7.347880794884120700E-016, 6.000000000000000900 ) ) ;
#259 = CARTESIAN_POINT ( 'NONE',  ( 3000.000000000000000, 7.041719095097590500E-016, -5.500000000000504500 ) ) ;
#260 = CARTESIAN_POINT ( 'NONE',  ( -2999.499999999998600, 7.347880794884120700E-016, 6.000000000000000900 ) ) ;
#261 = DIRECTION ( 'NONE',  ( 1.000000000000000000, 0.0000000000000000000, 0.0000000000000000000 ) ) ;
#262 = DIRECTION ( 'NONE',  ( 0.0000000000000000000, 0.0000000000000000000, -1.000000000000000000 ) ) ;
#263 = DIRECTION ( 'NONE',  ( 1.000000000000000000, 0.0000000000000000000, 0.0000000000000000000 ) ) ;
#264 = DIRECTION ( 'NONE',  ( 0.0000000000000000000, 0.0000000000000000000, -1.000000000000000000 ) ) ;
#265 = DIRECTION ( 'NONE',  ( 1.000000000000000000, -0.0000000000000000000, -0.0000000000000000000 ) ) ;
#266 = DIRECTION ( 'NONE',  ( 1.000000000000000000, 0.0000000000000000000, 0.0000000000000000000 ) ) ;
#267 = CARTESIAN_POINT ( 'NONE',  ( 3000.000000000000000, 0.0000000000000000000, 0.0000000000000000000 ) ) ;
#268 = DIRECTION ( 'NONE',  ( 0.0000000000000000000, 0.0000000000000000000, -1.000000000000000000 ) ) ;
#269 = DIRECTION ( 'NONE',  ( -1.000000000000000000, 0.0000000000000000000, 0.0000000000000000000 ) ) ;
#270 = DIRECTION ( 'NONE',  ( 0.0000000000000000000, 0.0000000000000000000, -1.000000000000000000 ) ) ;
#271 = CARTESIAN_POINT ( 'NONE',  ( 3000.000000000000000, 0.0000000000000000000, 0.0000000000000000000 ) ) ;
#272 = CARTESIAN_POINT ( 'NONE',  ( -2999.499999999998600, 0.0000000000000000000, 0.0000000000000000000 ) ) ;
#273 = DIRECTION ( 'NONE',  ( 1.000000000000000000, -0.0000000000000000000, -0.0000000000000000000 ) ) ;
#274 = CARTESIAN_POINT ( 'NONE',  ( 3000.000000000000000, 0.0000000000000000000, 5.500000000000504500 ) ) ;
#275 = CARTESIAN_POINT ( 'NONE',  ( 2999.500000000000500, 0.0000000000000000000, -6.000000000000000900 ) ) ;
ENDSEC;
END-ISO-10303-21;
