ISO-10303-21;
HEADER;
FILE_DESCRIPTION (( 'STEP AP203' ),
    '1' );
FILE_NAME ('WRB10.STEP',
    '2014-08-06T09:56:51',
    ( 'Ovidiu Buiga' ),
    ( '' ),
    'SwSTEP 2.0',
    'SolidWorks 2010',
    '' );
FILE_SCHEMA (( 'CONFIG_CONTROL_DESIGN' ));
ENDSEC;

DATA;
#1 = CC_DESIGN_APPROVAL ( #2, ( #9 ) ) ;
#2 = APPROVAL ( #274, 'UNSPECIFIED' ) ;
#3 = EDGE_CURVE ( 'NONE', #243, #232, #176, .T. ) ;
#4 = CC_DESIGN_DATE_AND_TIME_ASSIGNMENT ( #115, #273, ( #9 ) ) ;
#5 = EDGE_CURVE ( 'NONE', #234, #237, #194, .T. ) ;
#6 = EDGE_CURVE ( 'NONE', #237, #234, #157, .T. ) ;
#7 = CC_DESIGN_PERSON_AND_ORGANIZATION_ASSIGNMENT ( #131, #272, ( #9 ) ) ;
#8 = EDGE_CURVE ( 'NONE', #248, #249, #141, .T. ) ;
#9 = SECURITY_CLASSIFICATION ( '', '', #271 ) ;
#10 = PRODUCT_RELATED_PRODUCT_CATEGORY ( 'detail', '', ( #226 ) ) ;
#11 = CC_DESIGN_PERSON_AND_ORGANIZATION_ASSIGNMENT ( #136, #270, ( #19 ) ) ;
#12 = CC_DESIGN_PERSON_AND_ORGANIZATION_ASSIGNMENT ( #137, #269, ( #19 ) ) ;
#13 = EDGE_CURVE ( 'NONE', #234, #233, #139, .T. ) ;
#14 = EDGE_CURVE ( 'NONE', #243, #233, #130, .T. ) ;
#15 = CC_DESIGN_APPROVAL ( #17, ( #19 ) ) ;
#16 = EDGE_CURVE ( 'NONE', #228, #233, #122, .T. ) ;
#17 = APPROVAL ( #267, 'UNSPECIFIED' ) ;
#18 = AXIS2_PLACEMENT_3D ( 'NONE', #61, #60, #58 ) ;
#19 = PRODUCT_DEFINITION_FORMATION_WITH_SPECIFIED_SOURCE ( 'ANY', '', #226, .NOT_KNOWN. ) ;
#20 = EDGE_CURVE ( 'NONE', #232, #228, #151, .T. ) ;
#21 = CC_DESIGN_DATE_AND_TIME_ASSIGNMENT ( #165, #266, ( #26 ) ) ;
#22 = AXIS2_PLACEMENT_3D ( 'NONE', #229, #238, #247 ) ;
#23 = CC_DESIGN_PERSON_AND_ORGANIZATION_ASSIGNMENT ( #96, #265, ( #26 ) ) ;
#24 = CC_DESIGN_APPROVAL ( #25, ( #26 ) ) ;
#25 = APPROVAL ( #263, 'UNSPECIFIED' ) ;
#26 = PRODUCT_DEFINITION ( 'UNKNOWN', '', #19, #199 ) ;
#27 = CC_DESIGN_PERSON_AND_ORGANIZATION_ASSIGNMENT ( #106, #260, ( #226 ) ) ;
#28 = AXIS2_PLACEMENT_3D ( 'NONE', #198, #82, #85 ) ;
#29 = AXIS2_PLACEMENT_3D ( 'NONE', #203, #204, #83 ) ;
#30 = AXIS2_PLACEMENT_3D ( 'NONE', #56, #57, #54 ) ;
#31 = AXIS2_PLACEMENT_3D ( 'NONE', #223, #225, #212 ) ;
#32 = EDGE_CURVE ( 'NONE', #249, #237, #118, .T. ) ;
#33 = AXIS2_PLACEMENT_3D ( 'NONE', #207, #224, #209 ) ;
#34 = AXIS2_PLACEMENT_3D ( 'NONE', #221, #216, #218 ) ;
#35 = AXIS2_PLACEMENT_3D ( 'NONE', #217, #219, #210 ) ;
#36 = EDGE_CURVE ( 'NONE', #248, #234, #119, .T. ) ;
#37 = AXIS2_PLACEMENT_3D ( 'NONE', #242, #241, #236 ) ;
#38 = CC_DESIGN_SECURITY_CLASSIFICATION ( #9, ( #19 ) ) ;
#39 = EDGE_CURVE ( 'NONE', #237, #228, #117, .T. ) ;
#40 = AXIS2_PLACEMENT_3D ( 'NONE', #254, #255, #256 ) ;
#41 = AXIS2_PLACEMENT_3D ( 'NONE', #239, #244, #235 ) ;
#42 = EDGE_CURVE ( 'NONE', #249, #248, #180, .T. ) ;
#43 = EDGE_CURVE ( 'NONE', #232, #243, #148, .T. ) ;
#44 = AXIS2_PLACEMENT_3D ( 'NONE', #67, #208, #215 ) ;
#45 = AXIS2_PLACEMENT_3D ( 'NONE', #79, #70, #80 ) ;
#46 = AXIS2_PLACEMENT_3D ( 'NONE', #76, #69, #211 ) ;
#47 = EDGE_CURVE ( 'NONE', #233, #228, #143, .T. ) ;
#48 = AXIS2_PLACEMENT_3D ( 'NONE', #231, #230, #245 ) ;
#49 = AXIS2_PLACEMENT_3D ( 'NONE', #68, #65, #73 ) ;
#50 = CARTESIAN_POINT ( 'NONE',  ( 3000.000000000000000, 0.0000000000000000000, 4.500000000000170500 ) ) ;
#51 = CARTESIAN_POINT ( 'NONE',  ( -3000.000000000000000, 5.817072295950575300E-016, 4.500000000001058700 ) ) ;
#52 = CARTESIAN_POINT ( 'NONE',  ( -2999.500000000002300, 0.0000000000000000000, -5.000000000000000000 ) ) ;
#53 = CARTESIAN_POINT ( 'NONE',  ( 3000.000000000000000, 5.817072295950031900E-016, -4.500000000000170500 ) ) ;
#54 = DIRECTION ( 'NONE',  ( 0.0000000000000000000, 0.0000000000000000000, -1.000000000000000000 ) ) ;
#55 = CARTESIAN_POINT ( 'NONE',  ( 2999.500000000000500, 6.123233995736766300E-016, 5.000000000000000000 ) ) ;
#56 = CARTESIAN_POINT ( 'NONE',  ( -2999.500000000002300, 0.0000000000000000000, 0.0000000000000000000 ) ) ;
#57 = DIRECTION ( 'NONE',  ( 1.000000000000000000, -0.0000000000000000000, -0.0000000000000000000 ) ) ;
#58 = DIRECTION ( 'NONE',  ( 0.0000000000000000000, 0.0000000000000000000, -1.000000000000000000 ) ) ;
#59 = CARTESIAN_POINT ( 'NONE',  ( -3000.000000000000000, 0.0000000000000000000, -4.500000000001058700 ) ) ;
#60 = DIRECTION ( 'NONE',  ( 1.000000000000000000, -0.0000000000000000000, -0.0000000000000000000 ) ) ;
#61 = CARTESIAN_POINT ( 'NONE',  ( -2999.500000000002300, 0.0000000000000000000, 0.0000000000000000000 ) ) ;
#62 = DIRECTION ( 'NONE',  ( 1.000000000000000000, 0.0000000000000000000, 0.0000000000000000000 ) ) ;
#63 = CARTESIAN_POINT ( 'NONE',  ( -2999.500000000002300, 6.123233995736766300E-016, 5.000000000000000000 ) ) ;
#64 = DIRECTION ( 'NONE',  ( -0.7071067811864720800, 8.659560562355857300E-017, -0.7071067811866229600 ) ) ;
#65 = DIRECTION ( 'NONE',  ( -1.000000000000000000, 0.0000000000000000000, 0.0000000000000000000 ) ) ;
#66 = DIRECTION ( 'NONE',  ( 0.7071067811858441400, 0.0000000000000000000, -0.7071067811872510100 ) ) ;
#67 = CARTESIAN_POINT ( 'NONE',  ( 2999.500000000000500, 0.0000000000000000000, 0.0000000000000000000 ) ) ;
#68 = CARTESIAN_POINT ( 'NONE',  ( 2999.500000000000500, 0.0000000000000000000, 0.0000000000000000000 ) ) ;
#69 = DIRECTION ( 'NONE',  ( 1.000000000000000000, 0.0000000000000000000, 0.0000000000000000000 ) ) ;
#70 = DIRECTION ( 'NONE',  ( -1.000000000000000000, -0.0000000000000000000, -0.0000000000000000000 ) ) ;
#71 = CARTESIAN_POINT ( 'NONE',  ( -2999.500000000002300, 0.0000000000000000000, -5.000000000000000000 ) ) ;
#72 = CARTESIAN_POINT ( 'NONE',  ( 3000.000000000000000, 0.0000000000000000000, 4.500000000000170500 ) ) ;
#73 = DIRECTION ( 'NONE',  ( 0.0000000000000000000, 0.0000000000000000000, -1.000000000000000000 ) ) ;
#74 = DIRECTION ( 'NONE',  ( -0.7071067811864720800, 0.0000000000000000000, 0.7071067811866229600 ) ) ;
#75 = DIRECTION ( 'NONE',  ( 1.000000000000000000, 0.0000000000000000000, 0.0000000000000000000 ) ) ;
#76 = CARTESIAN_POINT ( 'NONE',  ( 3000.000000000000000, 0.0000000000000000000, 0.0000000000000000000 ) ) ;
#77 = DIRECTION ( 'NONE',  ( 0.7071067811858441400, 8.659560562363547500E-017, 0.7071067811872510100 ) ) ;
#78 = CARTESIAN_POINT ( 'NONE',  ( -3000.000000000000000, 6.123233995736766300E-016, 5.000000000000000000 ) ) ;
#79 = CARTESIAN_POINT ( 'NONE',  ( -3000.000000000000000, 0.0000000000000000000, 0.0000000000000000000 ) ) ;
#80 = DIRECTION ( 'NONE',  ( 0.0000000000000000000, 0.0000000000000000000, -1.000000000000000000 ) ) ;
#81 = CARTESIAN_POINT ( 'NONE',  ( 3000.000000000000000, 5.510910596163298600E-016, -4.500000000000170500 ) ) ;
#82 = DIRECTION ( 'NONE',  ( -1.000000000000000000, 0.0000000000000000000, 0.0000000000000000000 ) ) ;
#83 = DIRECTION ( 'NONE',  ( 0.0000000000000000000, 0.0000000000000000000, -1.000000000000000000 ) ) ;
#84 = ADVANCED_FACE ( 'NONE', ( #124 ), #114, .T. ) ;
#85 = DIRECTION ( 'NONE',  ( 0.0000000000000000000, 0.0000000000000000000, 1.000000000000000000 ) ) ;
#86 = ADVANCED_FACE ( 'NONE', ( #147 ), #222, .T. ) ;
#87 = ADVANCED_FACE ( 'NONE', ( #145 ), #220, .F. ) ;
#88 = ADVANCED_FACE ( 'NONE', ( #123 ), #126, .T. ) ;
#89 = ADVANCED_FACE ( 'NONE', ( #182 ), #181, .T. ) ;
#90 = EDGE_LOOP ( 'NONE', ( #178, #177 ) ) ;
#91 = EDGE_LOOP ( 'NONE', ( #191, #190, #188, #187 ) ) ;
#92 = EDGE_LOOP ( 'NONE', ( #95, #183, #93, #170 ) ) ;
#93 = ORIENTED_EDGE ( 'NONE', *, *, #16, .F. ) ;
#94 = CLOSED_SHELL ( 'NONE', ( #88, #89, #251, #84, #87, #86, #250, #252 ) ) ;
#95 = ORIENTED_EDGE ( 'NONE', *, *, #3, .F. ) ;
#96 = PERSON_AND_ORGANIZATION ( #227, #105 ) ;
#97 = CYLINDRICAL_SURFACE ( 'NONE', #29, 5.000000000000000000 ) ;
#98 = CONICAL_SURFACE ( 'NONE', #28, 4.500000000000170500, 0.7853981633975549700 ) ;
#99 = APPROVAL_DATE_TIME ( #100, #2 ) ;
#100 = DATE_AND_TIME ( #101, #102 ) ;
#101 = CALENDAR_DATE ( 2014, 6, 8 ) ;
#102 = LOCAL_TIME ( 12, 56, 51.00000000000000000, #109 ) ;
#103 =( GEOMETRIC_REPRESENTATION_CONTEXT ( 3 ) GLOBAL_UNCERTAINTY_ASSIGNED_CONTEXT ( ( #205 ) ) GLOBAL_UNIT_ASSIGNED_CONTEXT ( ( #202, #246, #253 ) ) REPRESENTATION_CONTEXT ( 'NONE', 'WORKASPACE' ) );
#104 = SHAPE_DEFINITION_REPRESENTATION ( #200, #206 ) ;
#105 = ORGANIZATION ( 'UNSPECIFIED', 'UNSPECIFIED', '' ) ;
#106 = PERSON_AND_ORGANIZATION ( #227, #105 ) ;
#107 = PERSON_AND_ORGANIZATION ( #227, #105 ) ;
#108 = APPROVAL_PERSON_ORGANIZATION ( #107, #25, #264 ) ;
#109 = COORDINATED_UNIVERSAL_TIME_OFFSET ( 2, 0, .AHEAD. ) ;
#110 = CONICAL_SURFACE ( 'NONE', #18, 5.000000000000000000, 0.7853981633984431500 ) ;
#111 = APPROVAL_PERSON_ORGANIZATION ( #112, #2, #275 ) ;
#112 = PERSON_AND_ORGANIZATION ( #227, #105 ) ;
#113 = EDGE_LOOP ( 'NONE', ( #186, #184 ) ) ;
#114 = CYLINDRICAL_SURFACE ( 'NONE', #35, 5.000000000000000000 ) ;
#115 = DATE_AND_TIME ( #121, #128 ) ;
#116 = VECTOR ( 'NONE', #75, 1000.000000000000000 ) ;
#117 = LINE ( 'NONE', #78, #116 ) ;
#118 = LINE ( 'NONE', #63, #127 ) ;
#119 = LINE ( 'NONE', #71, #125 ) ;
#120 = LOCAL_TIME ( 12, 56, 51.00000000000000000, #144 ) ;
#121 = CALENDAR_DATE ( 2014, 6, 8 ) ;
#122 = CIRCLE ( 'NONE', #49, 5.000000000000000000 ) ;
#123 = FACE_OUTER_BOUND ( 'NONE', #92, .T. ) ;
#124 = FACE_OUTER_BOUND ( 'NONE', #91, .T. ) ;
#125 = VECTOR ( 'NONE', #66, 1000.000000000000100 ) ;
#126 = CONICAL_SURFACE ( 'NONE', #31, 4.500000000000170500, 0.7853981633975549700 ) ;
#127 = VECTOR ( 'NONE', #77, 1000.000000000000100 ) ;
#128 = LOCAL_TIME ( 12, 56, 51.00000000000000000, #129 ) ;
#129 = COORDINATED_UNIVERSAL_TIME_OFFSET ( 2, 0, .AHEAD. ) ;
#130 = LINE ( 'NONE', #81, #133 ) ;
#131 = PERSON_AND_ORGANIZATION ( #227, #105 ) ;
#132 = ORIENTED_EDGE ( 'NONE', *, *, #32, .T. ) ;
#133 = VECTOR ( 'NONE', #64, 1000.000000000000000 ) ;
#134 = FACE_OUTER_BOUND ( 'NONE', #169, .T. ) ;
#135 = FACE_OUTER_BOUND ( 'NONE', #154, .T. ) ;
#136 = PERSON_AND_ORGANIZATION ( #227, #105 ) ;
#137 = PERSON_AND_ORGANIZATION ( #227, #105 ) ;
#138 = FACE_OUTER_BOUND ( 'NONE', #168, .T. ) ;
#139 = LINE ( 'NONE', #240, #149 ) ;
#140 = APPROVAL_DATE_TIME ( #146, #17 ) ;
#141 = CIRCLE ( 'NONE', #48, 4.500000000001058700 ) ;
#142 = DATE_AND_TIME ( #185, #120 ) ;
#143 = CIRCLE ( 'NONE', #44, 5.000000000000000000 ) ;
#144 = COORDINATED_UNIVERSAL_TIME_OFFSET ( 2, 0, .AHEAD. ) ;
#145 = FACE_OUTER_BOUND ( 'NONE', #113, .T. ) ;
#146 = DATE_AND_TIME ( #150, #152 ) ;
#147 = FACE_OUTER_BOUND ( 'NONE', #90, .T. ) ;
#148 = CIRCLE ( 'NONE', #46, 4.500000000000170500 ) ;
#149 = VECTOR ( 'NONE', #62, 1000.000000000000000 ) ;
#150 = CALENDAR_DATE ( 2014, 6, 8 ) ;
#151 = LINE ( 'NONE', #72, #155 ) ;
#152 = LOCAL_TIME ( 12, 56, 51.00000000000000000, #153 ) ;
#153 = COORDINATED_UNIVERSAL_TIME_OFFSET ( 2, 0, .AHEAD. ) ;
#154 = EDGE_LOOP ( 'NONE', ( #173, #156, #197, #172 ) ) ;
#155 = VECTOR ( 'NONE', #74, 1000.000000000000000 ) ;
#156 = ORIENTED_EDGE ( 'NONE', *, *, #43, .F. ) ;
#157 = CIRCLE ( 'NONE', #22, 5.000000000000000000 ) ;
#158 = ORIENTED_EDGE ( 'NONE', *, *, #6, .F. ) ;
#159 = ORIENTED_EDGE ( 'NONE', *, *, #36, .T. ) ;
#160 = APPROVAL_PERSON_ORGANIZATION ( #161, #17, #268 ) ;
#161 = PERSON_AND_ORGANIZATION ( #227, #105 ) ;
#162 = ORIENTED_EDGE ( 'NONE', *, *, #8, .F. ) ;
#163 = ORIENTED_EDGE ( 'NONE', *, *, #32, .F. ) ;
#164 = APPROVAL_DATE_TIME ( #142, #25 ) ;
#165 = DATE_AND_TIME ( #166, #175 ) ;
#166 = CALENDAR_DATE ( 2014, 6, 8 ) ;
#167 = ORIENTED_EDGE ( 'NONE', *, *, #36, .F. ) ;
#168 = EDGE_LOOP ( 'NONE', ( #195, #193, #192, #189 ) ) ;
#169 = EDGE_LOOP ( 'NONE', ( #163, #162, #159, #158 ) ) ;
#170 = ORIENTED_EDGE ( 'NONE', *, *, #20, .F. ) ;
#171 = ORIENTED_EDGE ( 'NONE', *, *, #42, .F. ) ;
#172 = ORIENTED_EDGE ( 'NONE', *, *, #47, .F. ) ;
#173 = ORIENTED_EDGE ( 'NONE', *, *, #14, .F. ) ;
#174 = EDGE_LOOP ( 'NONE', ( #171, #132, #196, #167 ) ) ;
#175 = LOCAL_TIME ( 12, 56, 51.00000000000000000, #179 ) ;
#176 = CIRCLE ( 'NONE', #37, 4.500000000000170500 ) ;
#177 = ORIENTED_EDGE ( 'NONE', *, *, #3, .T. ) ;
#178 = ORIENTED_EDGE ( 'NONE', *, *, #43, .T. ) ;
#179 = COORDINATED_UNIVERSAL_TIME_OFFSET ( 2, 0, .AHEAD. ) ;
#180 = CIRCLE ( 'NONE', #45, 4.500000000001058700 ) ;
#181 = CONICAL_SURFACE ( 'NONE', #30, 5.000000000000000000, 0.7853981633984431500 ) ;
#182 = FACE_OUTER_BOUND ( 'NONE', #174, .T. ) ;
#183 = ORIENTED_EDGE ( 'NONE', *, *, #14, .T. ) ;
#184 = ORIENTED_EDGE ( 'NONE', *, *, #42, .T. ) ;
#185 = CALENDAR_DATE ( 2014, 6, 8 ) ;
#186 = ORIENTED_EDGE ( 'NONE', *, *, #8, .T. ) ;
#187 = ORIENTED_EDGE ( 'NONE', *, *, #47, .T. ) ;
#188 = ORIENTED_EDGE ( 'NONE', *, *, #13, .T. ) ;
#189 = ORIENTED_EDGE ( 'NONE', *, *, #13, .F. ) ;
#190 = ORIENTED_EDGE ( 'NONE', *, *, #6, .T. ) ;
#191 = ORIENTED_EDGE ( 'NONE', *, *, #39, .F. ) ;
#192 = ORIENTED_EDGE ( 'NONE', *, *, #16, .T. ) ;
#193 = ORIENTED_EDGE ( 'NONE', *, *, #39, .T. ) ;
#194 = CIRCLE ( 'NONE', #41, 5.000000000000000000 ) ;
#195 = ORIENTED_EDGE ( 'NONE', *, *, #5, .T. ) ;
#196 = ORIENTED_EDGE ( 'NONE', *, *, #5, .F. ) ;
#197 = ORIENTED_EDGE ( 'NONE', *, *, #20, .T. ) ;
#198 = CARTESIAN_POINT ( 'NONE',  ( 3000.000000000000000, 0.0000000000000000000, 0.0000000000000000000 ) ) ;
#199 = DESIGN_CONTEXT ( 'detailed design', #261, 'design' ) ;
#200 = PRODUCT_DEFINITION_SHAPE ( 'NONE', 'NONE',  #26 ) ;
#201 = MANIFOLD_SOLID_BREP ( 'Chamfer1', #94 ) ;
#202 =( LENGTH_UNIT ( ) NAMED_UNIT ( * ) SI_UNIT ( .MILLI., .METRE. ) );
#203 = CARTESIAN_POINT ( 'NONE',  ( -3000.000000000000000, 0.0000000000000000000, 0.0000000000000000000 ) ) ;
#204 = DIRECTION ( 'NONE',  ( 1.000000000000000000, 0.0000000000000000000, 0.0000000000000000000 ) ) ;
#205 = UNCERTAINTY_MEASURE_WITH_UNIT (LENGTH_MEASURE( 1.000000000000000100E-005 ), #202, 'distance_accuracy_value', 'NONE');
#206 = ADVANCED_BREP_SHAPE_REPRESENTATION ( 'WRB10', ( #201, #40 ), #103 ) ;
#207 = CARTESIAN_POINT ( 'NONE',  ( -3000.000000000000000, 0.0000000000000000000, 0.0000000000000000000 ) ) ;
#208 = DIRECTION ( 'NONE',  ( -1.000000000000000000, 0.0000000000000000000, 0.0000000000000000000 ) ) ;
#209 = DIRECTION ( 'NONE',  ( 0.0000000000000000000, 0.0000000000000000000, -1.000000000000000000 ) ) ;
#210 = DIRECTION ( 'NONE',  ( 0.0000000000000000000, 0.0000000000000000000, -1.000000000000000000 ) ) ;
#211 = DIRECTION ( 'NONE',  ( 0.0000000000000000000, 0.0000000000000000000, -1.000000000000000000 ) ) ;
#212 = DIRECTION ( 'NONE',  ( 0.0000000000000000000, 0.0000000000000000000, 1.000000000000000000 ) ) ;
#213 = CARTESIAN_POINT ( 'NONE',  ( 2999.500000000000500, 0.0000000000000000000, -5.000000000000000000 ) ) ;
#214 = CARTESIAN_POINT ( 'NONE',  ( -2999.500000000002300, 6.123233995736766300E-016, 5.000000000000000000 ) ) ;
#215 = DIRECTION ( 'NONE',  ( 0.0000000000000000000, 0.0000000000000000000, -1.000000000000000000 ) ) ;
#216 = DIRECTION ( 'NONE',  ( 1.000000000000000000, 0.0000000000000000000, 0.0000000000000000000 ) ) ;
#217 = CARTESIAN_POINT ( 'NONE',  ( -3000.000000000000000, 0.0000000000000000000, 0.0000000000000000000 ) ) ;
#218 = DIRECTION ( 'NONE',  ( 0.0000000000000000000, 0.0000000000000000000, -1.000000000000000000 ) ) ;
#219 = DIRECTION ( 'NONE',  ( 1.000000000000000000, 0.0000000000000000000, 0.0000000000000000000 ) ) ;
#220 = PLANE ( 'NONE',  #33 ) ;
#221 = CARTESIAN_POINT ( 'NONE',  ( 3000.000000000000000, 0.0000000000000000000, 0.0000000000000000000 ) ) ;
#222 = PLANE ( 'NONE',  #34 ) ;
#223 = CARTESIAN_POINT ( 'NONE',  ( 3000.000000000000000, 0.0000000000000000000, 0.0000000000000000000 ) ) ;
#224 = DIRECTION ( 'NONE',  ( 1.000000000000000000, 0.0000000000000000000, 0.0000000000000000000 ) ) ;
#225 = DIRECTION ( 'NONE',  ( -1.000000000000000000, 0.0000000000000000000, 0.0000000000000000000 ) ) ;
#226 = PRODUCT ( 'WRB10', 'WRB10', '', ( #259 ) ) ;
#227 = PERSON ( 'UNSPECIFIED', 'UNSPECIFIED', 'UNSPECIFIED', ('UNSPECIFIED'), ('UNSPECIFIED'), ('UNSPECIFIED') ) ;
#228 = VERTEX_POINT ( 'NONE', #55 ) ;
#229 = CARTESIAN_POINT ( 'NONE',  ( -2999.500000000002300, 0.0000000000000000000, 0.0000000000000000000 ) ) ;
#230 = DIRECTION ( 'NONE',  ( -1.000000000000000000, -0.0000000000000000000, -0.0000000000000000000 ) ) ;
#231 = CARTESIAN_POINT ( 'NONE',  ( -3000.000000000000000, 0.0000000000000000000, 0.0000000000000000000 ) ) ;
#232 = VERTEX_POINT ( 'NONE', #50 ) ;
#233 = VERTEX_POINT ( 'NONE', #213 ) ;
#234 = VERTEX_POINT ( 'NONE', #52 ) ;
#235 = DIRECTION ( 'NONE',  ( 0.0000000000000000000, 0.0000000000000000000, -1.000000000000000000 ) ) ;
#236 = DIRECTION ( 'NONE',  ( 0.0000000000000000000, 0.0000000000000000000, -1.000000000000000000 ) ) ;
#237 = VERTEX_POINT ( 'NONE', #214 ) ;
#238 = DIRECTION ( 'NONE',  ( 1.000000000000000000, -0.0000000000000000000, -0.0000000000000000000 ) ) ;
#239 = CARTESIAN_POINT ( 'NONE',  ( -2999.500000000002300, 0.0000000000000000000, 0.0000000000000000000 ) ) ;
#240 = CARTESIAN_POINT ( 'NONE',  ( -3000.000000000000000, 0.0000000000000000000, -5.000000000000000000 ) ) ;
#241 = DIRECTION ( 'NONE',  ( 1.000000000000000000, 0.0000000000000000000, 0.0000000000000000000 ) ) ;
#242 = CARTESIAN_POINT ( 'NONE',  ( 3000.000000000000000, 0.0000000000000000000, 0.0000000000000000000 ) ) ;
#243 = VERTEX_POINT ( 'NONE', #53 ) ;
#244 = DIRECTION ( 'NONE',  ( 1.000000000000000000, -0.0000000000000000000, -0.0000000000000000000 ) ) ;
#245 = DIRECTION ( 'NONE',  ( 0.0000000000000000000, 0.0000000000000000000, -1.000000000000000000 ) ) ;
#246 =( NAMED_UNIT ( * ) PLANE_ANGLE_UNIT ( ) SI_UNIT ( $, .RADIAN. ) );
#247 = DIRECTION ( 'NONE',  ( 0.0000000000000000000, 0.0000000000000000000, -1.000000000000000000 ) ) ;
#248 = VERTEX_POINT ( 'NONE', #59 ) ;
#249 = VERTEX_POINT ( 'NONE', #51 ) ;
#250 = ADVANCED_FACE ( 'NONE', ( #134 ), #110, .T. ) ;
#251 = ADVANCED_FACE ( 'NONE', ( #138 ), #97, .T. ) ;
#252 = ADVANCED_FACE ( 'NONE', ( #135 ), #98, .T. ) ;
#253 =( NAMED_UNIT ( * ) SI_UNIT ( $, .STERADIAN. ) SOLID_ANGLE_UNIT ( ) );
#254 = CARTESIAN_POINT ( 'NONE',  ( 0.0000000000000000000, 0.0000000000000000000, 0.0000000000000000000 ) ) ;
#255 = DIRECTION ( 'NONE',  ( 0.0000000000000000000, 0.0000000000000000000, 1.000000000000000000 ) ) ;
#256 = DIRECTION ( 'NONE',  ( 1.000000000000000000, 0.0000000000000000000, 0.0000000000000000000 ) ) ;
#257 = APPLICATION_CONTEXT ( 'configuration controlled 3d designs of mechanical parts and assemblies' ) ;
#258 = APPLICATION_PROTOCOL_DEFINITION ( 'international standard', 'config_control_design', 1994, #257 ) ;
#259 = MECHANICAL_CONTEXT ( 'NONE', #257, 'mechanical' ) ;
#260 = PERSON_AND_ORGANIZATION_ROLE ( 'design_owner' ) ;
#261 = APPLICATION_CONTEXT ( 'configuration controlled 3d designs of mechanical parts and assemblies' ) ;
#262 = APPLICATION_PROTOCOL_DEFINITION ( 'international standard', 'config_control_design', 1994, #261 ) ;
#263 = APPROVAL_STATUS ( 'not_yet_approved' ) ;
#264 = APPROVAL_ROLE ( '' ) ;
#265 = PERSON_AND_ORGANIZATION_ROLE ( 'creator' ) ;
#266 = DATE_TIME_ROLE ( 'creation_date' ) ;
#267 = APPROVAL_STATUS ( 'not_yet_approved' ) ;
#268 = APPROVAL_ROLE ( '' ) ;
#269 = PERSON_AND_ORGANIZATION_ROLE ( 'creator' ) ;
#270 = PERSON_AND_ORGANIZATION_ROLE ( 'design_supplier' ) ;
#271 = SECURITY_CLASSIFICATION_LEVEL ( 'unclassified' ) ;
#272 = PERSON_AND_ORGANIZATION_ROLE ( 'classification_officer' ) ;
#273 = DATE_TIME_ROLE ( 'classification_date' ) ;
#274 = APPROVAL_STATUS ( 'not_yet_approved' ) ;
#275 = APPROVAL_ROLE ( '' ) ;
ENDSEC;
END-ISO-10303-21;
