ISO-10303-21;
HEADER;
FILE_DESCRIPTION (( 'STEP AP203' ),
    '1' );
FILE_NAME ('WRB8.STEP',
    '2014-07-30T08:15:12',
    ( 'Ovidiu Buiga' ),
    ( '' ),
    'SwSTEP 2.0',
    'SolidWorks 2010',
    '' );
FILE_SCHEMA (( 'CONFIG_CONTROL_DESIGN' ));
ENDSEC;

DATA;
#1 = ADVANCED_FACE ( 'NONE', ( #173 ), #200, .T. ) ;
#2 = ADVANCED_FACE ( 'NONE', ( #264 ), #76, .T. ) ;
#3 = ADVANCED_FACE ( 'NONE', ( #186 ), #207, .T. ) ;
#4 = ADVANCED_FACE ( 'NONE', ( #244 ), #208, .T. ) ;
#5 = EDGE_CURVE ( 'NONE', #158, #107, #168, .T. ) ;
#6 = EDGE_CURVE ( 'NONE', #74, #95, #212, .T. ) ;
#7 = AXIS2_PLACEMENT_3D ( 'NONE', #65, #117, #63 ) ;
#8 = EDGE_CURVE ( 'NONE', #158, #95, #174, .T. ) ;
#9 = EDGE_CURVE ( 'NONE', #109, #99, #256, .T. ) ;
#10 = AXIS2_PLACEMENT_3D ( 'NONE', #77, #70, #93 ) ;
#11 = EDGE_CURVE ( 'NONE', #109, #74, #255, .T. ) ;
#12 = EDGE_CURVE ( 'NONE', #95, #114, #181, .T. ) ;
#13 = APPROVAL ( #119, 'UNSPECIFIED' ) ;
#14 = CC_DESIGN_PERSON_AND_ORGANIZATION_ASSIGNMENT ( #227, #102, ( #52 ) ) ;
#15 = AXIS2_PLACEMENT_3D ( 'NONE', #66, #92, #112 ) ;
#16 = CC_DESIGN_PERSON_AND_ORGANIZATION_ASSIGNMENT ( #179, #124, ( #36 ) ) ;
#17 = AXIS2_PLACEMENT_3D ( 'NONE', #97, #86, #123 ) ;
#18 = AXIS2_PLACEMENT_3D ( 'NONE', #82, #164, #147 ) ;
#19 = AXIS2_PLACEMENT_3D ( 'NONE', #85, #161, #83 ) ;
#20 = EDGE_CURVE ( 'NONE', #99, #109, #184, .T. ) ;
#21 = AXIS2_PLACEMENT_3D ( 'NONE', #79, #72, #160 ) ;
#22 = AXIS2_PLACEMENT_3D ( 'NONE', #135, #159, #122 ) ;
#23 = EDGE_CURVE ( 'NONE', #111, #74, #203, .T. ) ;
#24 = CC_DESIGN_DATE_AND_TIME_ASSIGNMENT ( #257, #68, ( #36 ) ) ;
#25 = EDGE_CURVE ( 'NONE', #74, #111, #172, .T. ) ;
#26 = EDGE_CURVE ( 'NONE', #107, #114, #175, .T. ) ;
#27 = EDGE_CURVE ( 'NONE', #114, #95, #188, .T. ) ;
#28 = EDGE_CURVE ( 'NONE', #99, #111, #206, .T. ) ;
#29 = APPROVAL ( #163, 'UNSPECIFIED' ) ;
#30 = CC_DESIGN_SECURITY_CLASSIFICATION ( #40, ( #52 ) ) ;
#31 = PRODUCT_RELATED_PRODUCT_CATEGORY ( 'detail', '', ( #62 ) ) ;
#32 = AXIS2_PLACEMENT_3D ( 'NONE', #144, #127, #146 ) ;
#33 = AXIS2_PLACEMENT_3D ( 'NONE', #148, #139, #96 ) ;
#34 = CC_DESIGN_APPROVAL ( #29, ( #36 ) ) ;
#35 = AXIS2_PLACEMENT_3D ( 'NONE', #88, #94, #98 ) ;
#36 = PRODUCT_DEFINITION ( 'UNKNOWN', '', #52, #60 ) ;
#37 = AXIS2_PLACEMENT_3D ( 'NONE', #156, #136, #157 ) ;
#38 = APPROVAL ( #131, 'UNSPECIFIED' ) ;
#39 = AXIS2_PLACEMENT_3D ( 'NONE', #132, #91, #90 ) ;
#40 = SECURITY_CLASSIFICATION ( '', '', #134 ) ;
#41 = AXIS2_PLACEMENT_3D ( 'NONE', #137, #145, #141 ) ;
#42 = CC_DESIGN_PERSON_AND_ORGANIZATION_ASSIGNMENT ( #238, #101, ( #52 ) ) ;
#43 = EDGE_CURVE ( 'NONE', #107, #158, #258, .T. ) ;
#44 = AXIS2_PLACEMENT_3D ( 'NONE', #130, #121, #115 ) ;
#45 = AXIS2_PLACEMENT_3D ( 'NONE', #71, #129, #64 ) ;
#46 = CC_DESIGN_PERSON_AND_ORGANIZATION_ASSIGNMENT ( #183, #118, ( #40 ) ) ;
#47 = AXIS2_PLACEMENT_3D ( 'NONE', #81, #80, #162 ) ;
#48 = EDGE_CURVE ( 'NONE', #111, #114, #171, .T. ) ;
#49 = CC_DESIGN_DATE_AND_TIME_ASSIGNMENT ( #268, #113, ( #40 ) ) ;
#50 = CC_DESIGN_PERSON_AND_ORGANIZATION_ASSIGNMENT ( #221, #108, ( #62 ) ) ;
#51 = CC_DESIGN_APPROVAL ( #13, ( #52 ) ) ;
#52 = PRODUCT_DEFINITION_FORMATION_WITH_SPECIFIED_SOURCE ( 'ANY', '', #62, .NOT_KNOWN. ) ;
#53 = CC_DESIGN_APPROVAL ( #38, ( #40 ) ) ;
#54 = ADVANCED_FACE ( 'NONE', ( #198 ), #259, .T. ) ;
#55 = ADVANCED_BREP_SHAPE_REPRESENTATION ( 'WRB8', ( #56, #17 ), #222 ) ;
#56 = MANIFOLD_SOLID_BREP ( 'Chamfer1', #199 ) ;
#57 = UNCERTAINTY_MEASURE_WITH_UNIT (LENGTH_MEASURE( 1.000000000000000100E-005 ), #100, 'distance_accuracy_value', 'NONE');
#58 = ADVANCED_FACE ( 'NONE', ( #260 ), #155, .F. ) ;
#59 = ADVANCED_FACE ( 'NONE', ( #187 ), #262, .T. ) ;
#60 = DESIGN_CONTEXT ( 'detailed design', #89, 'design' ) ;
#61 = PRODUCT_DEFINITION_SHAPE ( 'NONE', 'NONE',  #36 ) ;
#62 = PRODUCT ( 'WRB8', 'WRB8', '', ( #78 ) ) ;
#63 = DIRECTION ( 'NONE',  ( 0.0000000000000000000, 0.0000000000000000000, -1.000000000000000000 ) ) ;
#64 = DIRECTION ( 'NONE',  ( 0.0000000000000000000, 0.0000000000000000000, -1.000000000000000000 ) ) ;
#65 = CARTESIAN_POINT ( 'NONE',  ( 3000.000000000000000, 0.0000000000000000000, 0.0000000000000000000 ) ) ;
#66 = CARTESIAN_POINT ( 'NONE',  ( -2999.500000000000000, 0.0000000000000000000, 0.0000000000000000000 ) ) ;
#67 = APPLICATION_CONTEXT ( 'configuration controlled 3d designs of mechanical parts and assemblies' ) ;
#68 = DATE_TIME_ROLE ( 'creation_date' ) ;
#69 = CARTESIAN_POINT ( 'NONE',  ( -3000.000000000000000, 0.0000000000000000000, -4.000000000000000000 ) ) ;
#70 = DIRECTION ( 'NONE',  ( 1.000000000000000000, 0.0000000000000000000, 0.0000000000000000000 ) ) ;
#71 = CARTESIAN_POINT ( 'NONE',  ( -3000.000000000000000, 0.0000000000000000000, 0.0000000000000000000 ) ) ;
#72 = DIRECTION ( 'NONE',  ( -1.000000000000000000, 0.0000000000000000000, 0.0000000000000000000 ) ) ;
#73 = DIRECTION ( 'NONE',  ( 0.7071067811871779600, 0.0000000000000000000, -0.7071067811859170800 ) ) ;
#74 = VERTEX_POINT ( 'NONE', #128 ) ;
#75 = CARTESIAN_POINT ( 'NONE',  ( -2999.500000000000000, 4.898587196589412800E-016, 4.000000000000000000 ) ) ;
#76 = PLANE ( 'NONE',  #10 ) ;
#77 = CARTESIAN_POINT ( 'NONE',  ( 3000.000000000000000, 0.0000000000000000000, 0.0000000000000000000 ) ) ;
#78 = MECHANICAL_CONTEXT ( 'NONE', #67, 'mechanical' ) ;
#79 = CARTESIAN_POINT ( 'NONE',  ( 3000.000000000000000, 0.0000000000000000000, 0.0000000000000000000 ) ) ;
#80 = DIRECTION ( 'NONE',  ( -1.000000000000000000, -0.0000000000000000000, -0.0000000000000000000 ) ) ;
#81 = CARTESIAN_POINT ( 'NONE',  ( -3000.000000000000000, 0.0000000000000000000, 0.0000000000000000000 ) ) ;
#82 = CARTESIAN_POINT ( 'NONE',  ( -2999.500000000000000, 0.0000000000000000000, 0.0000000000000000000 ) ) ;
#83 = DIRECTION ( 'NONE',  ( 0.0000000000000000000, 0.0000000000000000000, -1.000000000000000000 ) ) ;
#84 = DIRECTION ( 'NONE',  ( 0.7071067811871779600, 8.659560562347211900E-017, 0.7071067811859170800 ) ) ;
#85 = CARTESIAN_POINT ( 'NONE',  ( -3000.000000000000000, 0.0000000000000000000, 0.0000000000000000000 ) ) ;
#86 = DIRECTION ( 'NONE',  ( 0.0000000000000000000, 0.0000000000000000000, 1.000000000000000000 ) ) ;
#87 = APPROVAL_ROLE ( '' ) ;
#88 = CARTESIAN_POINT ( 'NONE',  ( 2999.499999999999500, 0.0000000000000000000, 0.0000000000000000000 ) ) ;
#89 = APPLICATION_CONTEXT ( 'configuration controlled 3d designs of mechanical parts and assemblies' ) ;
#90 = DIRECTION ( 'NONE',  ( 0.0000000000000000000, 0.0000000000000000000, -1.000000000000000000 ) ) ;
#91 = DIRECTION ( 'NONE',  ( -1.000000000000000000, -0.0000000000000000000, -0.0000000000000000000 ) ) ;
#92 = DIRECTION ( 'NONE',  ( 1.000000000000000000, -0.0000000000000000000, -0.0000000000000000000 ) ) ;
#93 = DIRECTION ( 'NONE',  ( 0.0000000000000000000, 0.0000000000000000000, -1.000000000000000000 ) ) ;
#94 = DIRECTION ( 'NONE',  ( -1.000000000000000000, 0.0000000000000000000, 0.0000000000000000000 ) ) ;
#95 = VERTEX_POINT ( 'NONE', #154 ) ;
#96 = DIRECTION ( 'NONE',  ( 0.0000000000000000000, 0.0000000000000000000, 1.000000000000000000 ) ) ;
#97 = CARTESIAN_POINT ( 'NONE',  ( 0.0000000000000000000, 0.0000000000000000000, 0.0000000000000000000 ) ) ;
#98 = DIRECTION ( 'NONE',  ( 0.0000000000000000000, 0.0000000000000000000, -1.000000000000000000 ) ) ;
#99 = VERTEX_POINT ( 'NONE', #151 ) ;
#100 =( LENGTH_UNIT ( ) NAMED_UNIT ( * ) SI_UNIT ( .MILLI., .METRE. ) );
#101 = PERSON_AND_ORGANIZATION_ROLE ( 'design_supplier' ) ;
#102 = PERSON_AND_ORGANIZATION_ROLE ( 'creator' ) ;
#103 = CARTESIAN_POINT ( 'NONE',  ( 3000.000000000000000, 0.0000000000000000000, 3.499999999998948400 ) ) ;
#104 = DIRECTION ( 'NONE',  ( 1.000000000000000000, 0.0000000000000000000, 0.0000000000000000000 ) ) ;
#105 = CARTESIAN_POINT ( 'NONE',  ( -2999.500000000000000, 0.0000000000000000000, -4.000000000000000000 ) ) ;
#106 = DIRECTION ( 'NONE',  ( -0.7071067811862360400, 8.659560562358750200E-017, -0.7071067811868591000 ) ) ;
#107 = VERTEX_POINT ( 'NONE', #152 ) ;
#108 = PERSON_AND_ORGANIZATION_ROLE ( 'design_owner' ) ;
#109 = VERTEX_POINT ( 'NONE', #153 ) ;
#110 = APPROVAL_ROLE ( '' ) ;
#111 = VERTEX_POINT ( 'NONE', #149 ) ;
#112 = DIRECTION ( 'NONE',  ( 0.0000000000000000000, 0.0000000000000000000, -1.000000000000000000 ) ) ;
#113 = DATE_TIME_ROLE ( 'classification_date' ) ;
#114 = VERTEX_POINT ( 'NONE', #150 ) ;
#115 = DIRECTION ( 'NONE',  ( 0.0000000000000000000, 0.0000000000000000000, -1.000000000000000000 ) ) ;
#116 = APPLICATION_PROTOCOL_DEFINITION ( 'international standard', 'config_control_design', 1994, #67 ) ;
#117 = DIRECTION ( 'NONE',  ( 1.000000000000000000, 0.0000000000000000000, 0.0000000000000000000 ) ) ;
#118 = PERSON_AND_ORGANIZATION_ROLE ( 'classification_officer' ) ;
#119 = APPROVAL_STATUS ( 'not_yet_approved' ) ;
#120 = CARTESIAN_POINT ( 'NONE',  ( 3000.000000000000000, 4.286263797014448300E-016, -3.499999999998948400 ) ) ;
#121 = DIRECTION ( 'NONE',  ( -1.000000000000000000, 0.0000000000000000000, 0.0000000000000000000 ) ) ;
#122 = DIRECTION ( 'NONE',  ( 0.0000000000000000000, 0.0000000000000000000, -1.000000000000000000 ) ) ;
#123 = DIRECTION ( 'NONE',  ( 1.000000000000000000, 0.0000000000000000000, 0.0000000000000000000 ) ) ;
#124 = PERSON_AND_ORGANIZATION_ROLE ( 'creator' ) ;
#125 =( NAMED_UNIT ( * ) SI_UNIT ( $, .STERADIAN. ) SOLID_ANGLE_UNIT ( ) );
#126 = CARTESIAN_POINT ( 'NONE',  ( 3000.000000000000000, 4.592425496801931100E-016, -3.499999999998948400 ) ) ;
#127 = DIRECTION ( 'NONE',  ( 1.000000000000000000, -0.0000000000000000000, -0.0000000000000000000 ) ) ;
#128 = CARTESIAN_POINT ( 'NONE',  ( -2999.500000000000000, 0.0000000000000000000, -4.000000000000000000 ) ) ;
#129 = DIRECTION ( 'NONE',  ( 1.000000000000000000, 0.0000000000000000000, 0.0000000000000000000 ) ) ;
#130 = CARTESIAN_POINT ( 'NONE',  ( 2999.499999999999500, 0.0000000000000000000, 0.0000000000000000000 ) ) ;
#131 = APPROVAL_STATUS ( 'not_yet_approved' ) ;
#132 = CARTESIAN_POINT ( 'NONE',  ( -3000.000000000000000, 0.0000000000000000000, 0.0000000000000000000 ) ) ;
#133 =( NAMED_UNIT ( * ) PLANE_ANGLE_UNIT ( ) SI_UNIT ( $, .RADIAN. ) );
#134 = SECURITY_CLASSIFICATION_LEVEL ( 'unclassified' ) ;
#135 = CARTESIAN_POINT ( 'NONE',  ( -2999.500000000000000, 0.0000000000000000000, 0.0000000000000000000 ) ) ;
#136 = DIRECTION ( 'NONE',  ( 1.000000000000000000, 0.0000000000000000000, 0.0000000000000000000 ) ) ;
#137 = CARTESIAN_POINT ( 'NONE',  ( -3000.000000000000000, 0.0000000000000000000, 0.0000000000000000000 ) ) ;
#138 = APPROVAL_ROLE ( '' ) ;
#139 = DIRECTION ( 'NONE',  ( -1.000000000000000000, 0.0000000000000000000, 0.0000000000000000000 ) ) ;
#140 = CARTESIAN_POINT ( 'NONE',  ( -3000.000000000000000, 4.898587196589412800E-016, 4.000000000000000000 ) ) ;
#141 = DIRECTION ( 'NONE',  ( 0.0000000000000000000, 0.0000000000000000000, -1.000000000000000000 ) ) ;
#142 = DIRECTION ( 'NONE',  ( 1.000000000000000000, 0.0000000000000000000, 0.0000000000000000000 ) ) ;
#143 = DIRECTION ( 'NONE',  ( -0.7071067811862360400, 0.0000000000000000000, 0.7071067811868591000 ) ) ;
#144 = CARTESIAN_POINT ( 'NONE',  ( -2999.500000000000000, 0.0000000000000000000, 0.0000000000000000000 ) ) ;
#145 = DIRECTION ( 'NONE',  ( 1.000000000000000000, 0.0000000000000000000, 0.0000000000000000000 ) ) ;
#146 = DIRECTION ( 'NONE',  ( 0.0000000000000000000, 0.0000000000000000000, -1.000000000000000000 ) ) ;
#147 = DIRECTION ( 'NONE',  ( 0.0000000000000000000, 0.0000000000000000000, -1.000000000000000000 ) ) ;
#148 = CARTESIAN_POINT ( 'NONE',  ( 3000.000000000000000, 0.0000000000000000000, 0.0000000000000000000 ) ) ;
#149 = CARTESIAN_POINT ( 'NONE',  ( -2999.500000000000000, 4.898587196589412800E-016, 4.000000000000000000 ) ) ;
#150 = CARTESIAN_POINT ( 'NONE',  ( 2999.499999999999500, 4.898587196589412800E-016, 4.000000000000000000 ) ) ;
#151 = CARTESIAN_POINT ( 'NONE',  ( -3000.000000000000000, 4.592425496803017700E-016, 3.500000000000724800 ) ) ;
#152 = CARTESIAN_POINT ( 'NONE',  ( 3000.000000000000000, 0.0000000000000000000, 3.499999999998948400 ) ) ;
#153 = CARTESIAN_POINT ( 'NONE',  ( -3000.000000000000000, 0.0000000000000000000, -3.500000000000724800 ) ) ;
#154 = CARTESIAN_POINT ( 'NONE',  ( 2999.499999999999500, 0.0000000000000000000, -4.000000000000000000 ) ) ;
#155 = PLANE ( 'NONE',  #19 ) ;
#156 = CARTESIAN_POINT ( 'NONE',  ( 3000.000000000000000, 0.0000000000000000000, 0.0000000000000000000 ) ) ;
#157 = DIRECTION ( 'NONE',  ( 0.0000000000000000000, 0.0000000000000000000, -1.000000000000000000 ) ) ;
#158 = VERTEX_POINT ( 'NONE', #126 ) ;
#159 = DIRECTION ( 'NONE',  ( 1.000000000000000000, -0.0000000000000000000, -0.0000000000000000000 ) ) ;
#160 = DIRECTION ( 'NONE',  ( 0.0000000000000000000, 0.0000000000000000000, 1.000000000000000000 ) ) ;
#161 = DIRECTION ( 'NONE',  ( 1.000000000000000000, 0.0000000000000000000, 0.0000000000000000000 ) ) ;
#162 = DIRECTION ( 'NONE',  ( 0.0000000000000000000, 0.0000000000000000000, -1.000000000000000000 ) ) ;
#163 = APPROVAL_STATUS ( 'not_yet_approved' ) ;
#164 = DIRECTION ( 'NONE',  ( 1.000000000000000000, -0.0000000000000000000, -0.0000000000000000000 ) ) ;
#165 = APPLICATION_PROTOCOL_DEFINITION ( 'international standard', 'config_control_design', 1994, #89 ) ;
#166 = PERSON ( 'UNSPECIFIED', 'UNSPECIFIED', 'UNSPECIFIED', ('UNSPECIFIED'), ('UNSPECIFIED'), ('UNSPECIFIED') ) ;
#167 = ADVANCED_FACE ( 'NONE', ( #204 ), #261, .T. ) ;
#168 = CIRCLE ( 'NONE', #7, 3.499999999998948400 ) ;
#169 = VECTOR ( 'NONE', #142, 1000.000000000000000 ) ;
#170 = ORIENTED_EDGE ( 'NONE', *, *, #26, .F. ) ;
#171 = LINE ( 'NONE', #140, #169 ) ;
#172 = CIRCLE ( 'NONE', #18, 4.000000000000000000 ) ;
#173 = FACE_OUTER_BOUND ( 'NONE', #226, .T. ) ;
#174 = LINE ( 'NONE', #120, #177 ) ;
#175 = LINE ( 'NONE', #103, #194 ) ;
#176 = VECTOR ( 'NONE', #84, 1000.000000000000000 ) ;
#177 = VECTOR ( 'NONE', #106, 1000.000000000000000 ) ;
#178 = ORIENTED_EDGE ( 'NONE', *, *, #43, .F. ) ;
#179 = PERSON_AND_ORGANIZATION ( #166, #220 ) ;
#180 = ORIENTED_EDGE ( 'NONE', *, *, #26, .T. ) ;
#181 = CIRCLE ( 'NONE', #44, 4.000000000000000000 ) ;
#182 = COORDINATED_UNIVERSAL_TIME_OFFSET ( 2, 0, .AHEAD. ) ;
#183 = PERSON_AND_ORGANIZATION ( #166, #220 ) ;
#184 = CIRCLE ( 'NONE', #47, 3.500000000000724800 ) ;
#185 = ORIENTED_EDGE ( 'NONE', *, *, #12, .T. ) ;
#186 = FACE_OUTER_BOUND ( 'NONE', #225, .T. ) ;
#187 = FACE_OUTER_BOUND ( 'NONE', #254, .T. ) ;
#188 = CIRCLE ( 'NONE', #35, 4.000000000000000000 ) ;
#189 = ORIENTED_EDGE ( 'NONE', *, *, #43, .T. ) ;
#190 = ORIENTED_EDGE ( 'NONE', *, *, #48, .T. ) ;
#191 = ORIENTED_EDGE ( 'NONE', *, *, #27, .T. ) ;
#192 = ORIENTED_EDGE ( 'NONE', *, *, #12, .F. ) ;
#193 = ORIENTED_EDGE ( 'NONE', *, *, #23, .F. ) ;
#194 = VECTOR ( 'NONE', #143, 1000.000000000000000 ) ;
#195 = APPROVAL_PERSON_ORGANIZATION ( #251, #13, #110 ) ;
#196 = ORIENTED_EDGE ( 'NONE', *, *, #5, .T. ) ;
#197 = ORIENTED_EDGE ( 'NONE', *, *, #23, .T. ) ;
#198 = FACE_OUTER_BOUND ( 'NONE', #224, .T. ) ;
#199 = CLOSED_SHELL ( 'NONE', ( #1, #4, #3, #167, #58, #2, #59, #54 ) ) ;
#200 = CONICAL_SURFACE ( 'NONE', #21, 3.499999999998948400, 0.7853981633978889300 ) ;
#201 = ORIENTED_EDGE ( 'NONE', *, *, #27, .F. ) ;
#202 = LOCAL_TIME ( 11, 15, 12.00000000000000000, #182 ) ;
#203 = CIRCLE ( 'NONE', #22, 4.000000000000000000 ) ;
#204 = FACE_OUTER_BOUND ( 'NONE', #211, .T. ) ;
#205 = LOCAL_TIME ( 11, 15, 12.00000000000000000, #248 ) ;
#206 = LINE ( 'NONE', #75, #176 ) ;
#207 = CYLINDRICAL_SURFACE ( 'NONE', #45, 4.000000000000000000 ) ;
#208 = CONICAL_SURFACE ( 'NONE', #15, 4.000000000000000000, 0.7853981633965567700 ) ;
#209 = ORIENTED_EDGE ( 'NONE', *, *, #11, .F. ) ;
#210 = ORIENTED_EDGE ( 'NONE', *, *, #20, .F. ) ;
#211 = EDGE_LOOP ( 'NONE', ( #249, #197, #228, #185 ) ) ;
#212 = LINE ( 'NONE', #69, #242 ) ;
#213 = APPROVAL_DATE_TIME ( #215, #29 ) ;
#214 = CALENDAR_DATE ( 2014, 30, 7 ) ;
#215 = DATE_AND_TIME ( #214, #217 ) ;
#216 = COORDINATED_UNIVERSAL_TIME_OFFSET ( 2, 0, .AHEAD. ) ;
#217 = LOCAL_TIME ( 11, 15, 12.00000000000000000, #216 ) ;
#218 = PERSON_AND_ORGANIZATION ( #166, #220 ) ;
#219 = APPROVAL_PERSON_ORGANIZATION ( #218, #29, #87 ) ;
#220 = ORGANIZATION ( 'UNSPECIFIED', 'UNSPECIFIED', '' ) ;
#221 = PERSON_AND_ORGANIZATION ( #166, #220 ) ;
#222 =( GEOMETRIC_REPRESENTATION_CONTEXT ( 3 ) GLOBAL_UNCERTAINTY_ASSIGNED_CONTEXT ( ( #57 ) ) GLOBAL_UNIT_ASSIGNED_CONTEXT ( ( #100, #133, #125 ) ) REPRESENTATION_CONTEXT ( 'NONE', 'WORKASPACE' ) );
#223 = SHAPE_DEFINITION_REPRESENTATION ( #61, #55 ) ;
#224 = EDGE_LOOP ( 'NONE', ( #231, #178, #180, #192 ) ) ;
#225 = EDGE_LOOP ( 'NONE', ( #232, #190, #191, #230 ) ) ;
#226 = EDGE_LOOP ( 'NONE', ( #250, #233, #201, #170 ) ) ;
#227 = PERSON_AND_ORGANIZATION ( #166, #220 ) ;
#228 = ORIENTED_EDGE ( 'NONE', *, *, #6, .T. ) ;
#229 = ORIENTED_EDGE ( 'NONE', *, *, #28, .T. ) ;
#230 = ORIENTED_EDGE ( 'NONE', *, *, #6, .F. ) ;
#231 = ORIENTED_EDGE ( 'NONE', *, *, #8, .F. ) ;
#232 = ORIENTED_EDGE ( 'NONE', *, *, #25, .T. ) ;
#233 = ORIENTED_EDGE ( 'NONE', *, *, #8, .T. ) ;
#234 = ORIENTED_EDGE ( 'NONE', *, *, #25, .F. ) ;
#235 = EDGE_LOOP ( 'NONE', ( #210, #229, #234, #209 ) ) ;
#236 = ORIENTED_EDGE ( 'NONE', *, *, #9, .T. ) ;
#237 = ORIENTED_EDGE ( 'NONE', *, *, #11, .T. ) ;
#238 = PERSON_AND_ORGANIZATION ( #166, #220 ) ;
#239 = EDGE_LOOP ( 'NONE', ( #189, #196 ) ) ;
#240 = VECTOR ( 'NONE', #73, 1000.000000000000000 ) ;
#241 = ORIENTED_EDGE ( 'NONE', *, *, #28, .F. ) ;
#242 = VECTOR ( 'NONE', #104, 1000.000000000000000 ) ;
#243 = EDGE_LOOP ( 'NONE', ( #236, #246 ) ) ;
#244 = FACE_OUTER_BOUND ( 'NONE', #235, .T. ) ;
#245 = CALENDAR_DATE ( 2014, 30, 7 ) ;
#246 = ORIENTED_EDGE ( 'NONE', *, *, #20, .T. ) ;
#247 = CALENDAR_DATE ( 2014, 30, 7 ) ;
#248 = COORDINATED_UNIVERSAL_TIME_OFFSET ( 2, 0, .AHEAD. ) ;
#249 = ORIENTED_EDGE ( 'NONE', *, *, #48, .F. ) ;
#250 = ORIENTED_EDGE ( 'NONE', *, *, #5, .F. ) ;
#251 = PERSON_AND_ORGANIZATION ( #166, #220 ) ;
#252 = COORDINATED_UNIVERSAL_TIME_OFFSET ( 2, 0, .AHEAD. ) ;
#253 = ORIENTED_EDGE ( 'NONE', *, *, #9, .F. ) ;
#254 = EDGE_LOOP ( 'NONE', ( #241, #253, #237, #193 ) ) ;
#255 = LINE ( 'NONE', #105, #240 ) ;
#256 = CIRCLE ( 'NONE', #39, 3.500000000000724800 ) ;
#257 = DATE_AND_TIME ( #247, #205 ) ;
#258 = CIRCLE ( 'NONE', #37, 3.499999999998948400 ) ;
#259 = CONICAL_SURFACE ( 'NONE', #33, 3.499999999998948400, 0.7853981633978889300 ) ;
#260 = FACE_OUTER_BOUND ( 'NONE', #243, .T. ) ;
#261 = CYLINDRICAL_SURFACE ( 'NONE', #41, 4.000000000000000000 ) ;
#262 = CONICAL_SURFACE ( 'NONE', #32, 4.000000000000000000, 0.7853981633965567700 ) ;
#263 = LOCAL_TIME ( 11, 15, 12.00000000000000000, #252 ) ;
#264 = FACE_OUTER_BOUND ( 'NONE', #239, .T. ) ;
#265 = DATE_AND_TIME ( #245, #263 ) ;
#266 = CALENDAR_DATE ( 2014, 30, 7 ) ;
#267 = APPROVAL_DATE_TIME ( #265, #13 ) ;
#268 = DATE_AND_TIME ( #266, #202 ) ;
#269 = PERSON_AND_ORGANIZATION ( #166, #220 ) ;
#270 = APPROVAL_PERSON_ORGANIZATION ( #269, #38, #138 ) ;
#271 = COORDINATED_UNIVERSAL_TIME_OFFSET ( 2, 0, .AHEAD. ) ;
#272 = LOCAL_TIME ( 11, 15, 12.00000000000000000, #271 ) ;
#273 = CALENDAR_DATE ( 2014, 30, 7 ) ;
#274 = DATE_AND_TIME ( #273, #272 ) ;
#275 = APPROVAL_DATE_TIME ( #274, #38 ) ;
ENDSEC;
END-ISO-10303-21;
