ISO-10303-21;
HEADER;
FILE_DESCRIPTION (( 'STEP AP203' ),
    '1' );
FILE_NAME ('WRA6.STEP',
    '2014-08-06T09:41:42',
    ( 'Ovidiu Buiga' ),
    ( '' ),
    'SwSTEP 2.0',
    'SolidWorks 2010',
    '' );
FILE_SCHEMA (( 'CONFIG_CONTROL_DESIGN' ));
ENDSEC;

DATA;
#1 = APPROVAL_STATUS ( 'not_yet_approved' ) ;
#2 = DATE_TIME_ROLE ( 'classification_date' ) ;
#3 = PERSON_AND_ORGANIZATION_ROLE ( 'classification_officer' ) ;
#4 = APPROVAL_ROLE ( '' ) ;
#5 = CARTESIAN_POINT ( 'NONE',  ( 3000.000000000000000, 0.0000000000000000000, 2.500000000000390800 ) ) ;
#6 = CARTESIAN_POINT ( 'NONE',  ( 3000.000000000000000, 3.367778697655460600E-016, -2.500000000000390800 ) ) ;
#7 = DIRECTION ( 'NONE',  ( 1.000000000000000000, 0.0000000000000000000, 0.0000000000000000000 ) ) ;
#8 = VERTEX_POINT ( 'NONE', #14 ) ;
#9 = CARTESIAN_POINT ( 'NONE',  ( -2999.500000000000500, 0.0000000000000000000, -3.000000000000000400 ) ) ;
#10 = CARTESIAN_POINT ( 'NONE',  ( 2999.500000000000500, 3.673940397442060400E-016, 3.000000000000000400 ) ) ;
#11 = DIRECTION ( 'NONE',  ( 0.0000000000000000000, 0.0000000000000000000, -1.000000000000000000 ) ) ;
#12 = VERTEX_POINT ( 'NONE', #17 ) ;
#13 = VERTEX_POINT ( 'NONE', #10 ) ;
#14 = CARTESIAN_POINT ( 'NONE',  ( -3000.000000000000000, 0.0000000000000000000, -2.500000000000390800 ) ) ;
#15 = VERTEX_POINT ( 'NONE', #18 ) ;
#16 = VERTEX_POINT ( 'NONE', #6 ) ;
#17 = CARTESIAN_POINT ( 'NONE',  ( -3000.000000000000000, 3.367778697655460600E-016, 2.500000000000390800 ) ) ;
#18 = CARTESIAN_POINT ( 'NONE',  ( -2999.500000000000500, 3.673940397442060400E-016, 3.000000000000000400 ) ) ;
#19 = CARTESIAN_POINT ( 'NONE',  ( 2999.500000000000500, 0.0000000000000000000, -3.000000000000000400 ) ) ;
#20 = VERTEX_POINT ( 'NONE', #19 ) ;
#21 = VERTEX_POINT ( 'NONE', #9 ) ;
#22 = CARTESIAN_POINT ( 'NONE',  ( -3000.000000000000000, 0.0000000000000000000, 0.0000000000000000000 ) ) ;
#23 = DIRECTION ( 'NONE',  ( 0.0000000000000000000, 0.0000000000000000000, 1.000000000000000000 ) ) ;
#24 = DIRECTION ( 'NONE',  ( 0.0000000000000000000, 0.0000000000000000000, 1.000000000000000000 ) ) ;
#25 = DIRECTION ( 'NONE',  ( -1.000000000000000000, 0.0000000000000000000, 0.0000000000000000000 ) ) ;
#26 = CARTESIAN_POINT ( 'NONE',  ( 3000.000000000000000, 0.0000000000000000000, 0.0000000000000000000 ) ) ;
#27 = DIRECTION ( 'NONE',  ( 0.0000000000000000000, 0.0000000000000000000, -1.000000000000000000 ) ) ;
#28 = DIRECTION ( 'NONE',  ( -1.000000000000000000, 0.0000000000000000000, 0.0000000000000000000 ) ) ;
#29 = CARTESIAN_POINT ( 'NONE',  ( 3000.000000000000000, 0.0000000000000000000, 0.0000000000000000000 ) ) ;
#30 = DIRECTION ( 'NONE',  ( 0.0000000000000000000, 0.0000000000000000000, -1.000000000000000000 ) ) ;
#31 = DIRECTION ( 'NONE',  ( 1.000000000000000000, 0.0000000000000000000, 0.0000000000000000000 ) ) ;
#32 = CARTESIAN_POINT ( 'NONE',  ( -3000.000000000000000, 0.0000000000000000000, 0.0000000000000000000 ) ) ;
#33 = DIRECTION ( 'NONE',  ( 1.000000000000000000, -0.0000000000000000000, -0.0000000000000000000 ) ) ;
#34 = CARTESIAN_POINT ( 'NONE',  ( -2999.500000000000500, 0.0000000000000000000, 0.0000000000000000000 ) ) ;
#35 = VERTEX_POINT ( 'NONE', #5 ) ;
#36 = ADVANCED_FACE ( 'NONE', ( #98 ), #80, .T. ) ;
#37 = ADVANCED_FACE ( 'NONE', ( #52 ), #104, .T. ) ;
#38 = ADVANCED_FACE ( 'NONE', ( #133 ), #86, .T. ) ;
#39 = ADVANCED_FACE ( 'NONE', ( #140 ), #108, .T. ) ;
#40 = ADVANCED_FACE ( 'NONE', ( #118 ), #92, .T. ) ;
#41 = ADVANCED_FACE ( 'NONE', ( #138 ), #187, .T. ) ;
#42 = ADVANCED_BREP_SHAPE_REPRESENTATION ( 'WRA6', ( #44, #153 ), #61 ) ;
#43 = UNCERTAINTY_MEASURE_WITH_UNIT (LENGTH_MEASURE( 1.000000000000000100E-005 ), #240, 'distance_accuracy_value', 'NONE');
#44 = MANIFOLD_SOLID_BREP ( 'Chamfer1', #121 ) ;
#45 = ORIENTED_EDGE ( 'NONE', *, *, #174, .F. ) ;
#46 = ORIENTED_EDGE ( 'NONE', *, *, #165, .F. ) ;
#47 = COORDINATED_UNIVERSAL_TIME_OFFSET ( 2, 0, .AHEAD. ) ;
#48 = EDGE_LOOP ( 'NONE', ( #49, #143, #50, #152 ) ) ;
#49 = ORIENTED_EDGE ( 'NONE', *, *, #175, .F. ) ;
#50 = ORIENTED_EDGE ( 'NONE', *, *, #170, .T. ) ;
#51 = ORIENTED_EDGE ( 'NONE', *, *, #177, .F. ) ;
#52 = FACE_OUTER_BOUND ( 'NONE', #122, .T. ) ;
#53 = ORIENTED_EDGE ( 'NONE', *, *, #172, .F. ) ;
#54 = ORIENTED_EDGE ( 'NONE', *, *, #177, .T. ) ;
#55 = APPROVAL_PERSON_ORGANIZATION ( #57, #262, #234 ) ;
#56 = ORIENTED_EDGE ( 'NONE', *, *, #170, .F. ) ;
#57 = PERSON_AND_ORGANIZATION ( #182, #58 ) ;
#58 = ORGANIZATION ( 'UNSPECIFIED', 'UNSPECIFIED', '' ) ;
#59 = PERSON_AND_ORGANIZATION ( #182, #58 ) ;
#60 = SHAPE_DEFINITION_REPRESENTATION ( #255, #42 ) ;
#61 =( GEOMETRIC_REPRESENTATION_CONTEXT ( 3 ) GLOBAL_UNCERTAINTY_ASSIGNED_CONTEXT ( ( #43 ) ) GLOBAL_UNIT_ASSIGNED_CONTEXT ( ( #240, #242, #235 ) ) REPRESENTATION_CONTEXT ( 'NONE', 'WORKASPACE' ) );
#62 = DATE_AND_TIME ( #129, #66 ) ;
#63 = ORIENTED_EDGE ( 'NONE', *, *, #178, .T. ) ;
#64 = ORIENTED_EDGE ( 'NONE', *, *, #169, .F. ) ;
#65 = APPROVAL_DATE_TIME ( #67, #267 ) ;
#66 = LOCAL_TIME ( 12, 41, 42.00000000000000000, #47 ) ;
#67 = DATE_AND_TIME ( #68, #69 ) ;
#68 = CALENDAR_DATE ( 2014, 6, 8 ) ;
#69 = LOCAL_TIME ( 12, 41, 42.00000000000000000, #70 ) ;
#70 = COORDINATED_UNIVERSAL_TIME_OFFSET ( 2, 0, .AHEAD. ) ;
#71 = APPROVAL_PERSON_ORGANIZATION ( #72, #267, #4 ) ;
#72 = PERSON_AND_ORGANIZATION ( #182, #58 ) ;
#73 = DATE_AND_TIME ( #74, #75 ) ;
#74 = CALENDAR_DATE ( 2014, 6, 8 ) ;
#75 = LOCAL_TIME ( 12, 41, 42.00000000000000000, #76 ) ;
#76 = COORDINATED_UNIVERSAL_TIME_OFFSET ( 2, 0, .AHEAD. ) ;
#77 = PERSON_AND_ORGANIZATION ( #182, #58 ) ;
#78 = VECTOR ( 'NONE', #218, 1000.000000000000000 ) ;
#79 = LINE ( 'NONE', #209, #106 ) ;
#80 = CYLINDRICAL_SURFACE ( 'NONE', #180, 3.000000000000000400 ) ;
#81 = PERSON_AND_ORGANIZATION ( #182, #58 ) ;
#82 = ORIENTED_EDGE ( 'NONE', *, *, #173, .T. ) ;
#83 = CIRCLE ( 'NONE', #184, 2.500000000000390800 ) ;
#84 = PERSON_AND_ORGANIZATION ( #182, #58 ) ;
#85 = APPROVAL_DATE_TIME ( #87, #258 ) ;
#86 = CONICAL_SURFACE ( 'NONE', #159, 2.500000000000390800, 0.7853981633973351500 ) ;
#87 = DATE_AND_TIME ( #88, #89 ) ;
#88 = CALENDAR_DATE ( 2014, 6, 8 ) ;
#89 = LOCAL_TIME ( 12, 41, 42.00000000000000000, #90 ) ;
#90 = COORDINATED_UNIVERSAL_TIME_OFFSET ( 2, 0, .AHEAD. ) ;
#91 = APPROVAL_PERSON_ORGANIZATION ( #95, #258, #252 ) ;
#92 = CONICAL_SURFACE ( 'NONE', #157, 3.000000000000000400, 0.7853981633973351500 ) ;
#93 = VECTOR ( 'NONE', #197, 1000.000000000000000 ) ;
#94 = EDGE_LOOP ( 'NONE', ( #63, #54, #82, #125 ) ) ;
#95 = PERSON_AND_ORGANIZATION ( #182, #58 ) ;
#96 = DATE_AND_TIME ( #148, #130 ) ;
#97 = EDGE_LOOP ( 'NONE', ( #144, #151, #110, #45 ) ) ;
#98 = FACE_OUTER_BOUND ( 'NONE', #116, .T. ) ;
#99 = VECTOR ( 'NONE', #221, 1000.000000000000000 ) ;
#100 = LINE ( 'NONE', #222, #99 ) ;
#101 = CONICAL_SURFACE ( 'NONE', #257, 3.000000000000000400, 0.7853981633973351500 ) ;
#102 = VECTOR ( 'NONE', #198, 1000.000000000000000 ) ;
#103 = VECTOR ( 'NONE', #212, 1000.000000000000000 ) ;
#104 = CONICAL_SURFACE ( 'NONE', #164, 2.500000000000390800, 0.7853981633973351500 ) ;
#105 = ORIENTED_EDGE ( 'NONE', *, *, #169, .T. ) ;
#106 = VECTOR ( 'NONE', #215, 1000.000000000000000 ) ;
#107 = ORIENTED_EDGE ( 'NONE', *, *, #178, .F. ) ;
#108 = CYLINDRICAL_SURFACE ( 'NONE', #163, 3.000000000000000400 ) ;
#109 = CIRCLE ( 'NONE', #155, 3.000000000000000400 ) ;
#110 = ORIENTED_EDGE ( 'NONE', *, *, #173, .F. ) ;
#111 = CIRCLE ( 'NONE', #158, 2.500000000000390800 ) ;
#112 = LINE ( 'NONE', #205, #93 ) ;
#113 = LINE ( 'NONE', #216, #78 ) ;
#114 = ORIENTED_EDGE ( 'NONE', *, *, #167, .F. ) ;
#115 = ORIENTED_EDGE ( 'NONE', *, *, #179, .T. ) ;
#116 = EDGE_LOOP ( 'NONE', ( #51, #115, #136, #137 ) ) ;
#117 = LINE ( 'NONE', #213, #103 ) ;
#118 = FACE_OUTER_BOUND ( 'NONE', #139, .T. ) ;
#119 = ORIENTED_EDGE ( 'NONE', *, *, #165, .T. ) ;
#120 = LINE ( 'NONE', #211, #102 ) ;
#121 = CLOSED_SHELL ( 'NONE', ( #38, #40, #39, #36, #254, #41, #253, #37 ) ) ;
#122 = EDGE_LOOP ( 'NONE', ( #53, #46, #134, #114 ) ) ;
#123 = CIRCLE ( 'NONE', #161, 2.500000000000390800 ) ;
#124 = ORIENTED_EDGE ( 'NONE', *, *, #175, .T. ) ;
#125 = ORIENTED_EDGE ( 'NONE', *, *, #176, .F. ) ;
#126 = CIRCLE ( 'NONE', #160, 2.500000000000390800 ) ;
#127 = ORIENTED_EDGE ( 'NONE', *, *, #168, .T. ) ;
#128 = COORDINATED_UNIVERSAL_TIME_OFFSET ( 2, 0, .AHEAD. ) ;
#129 = CALENDAR_DATE ( 2014, 6, 8 ) ;
#130 = LOCAL_TIME ( 12, 41, 42.00000000000000000, #128 ) ;
#131 = PERSON_AND_ORGANIZATION ( #182, #58 ) ;
#132 = EDGE_LOOP ( 'NONE', ( #119, #141 ) ) ;
#133 = FACE_OUTER_BOUND ( 'NONE', #97, .T. ) ;
#134 = ORIENTED_EDGE ( 'NONE', *, *, #174, .T. ) ;
#135 = CIRCLE ( 'NONE', #162, 3.000000000000000400 ) ;
#136 = ORIENTED_EDGE ( 'NONE', *, *, #176, .T. ) ;
#137 = ORIENTED_EDGE ( 'NONE', *, *, #167, .T. ) ;
#138 = FACE_OUTER_BOUND ( 'NONE', #132, .T. ) ;
#139 = EDGE_LOOP ( 'NONE', ( #64, #124, #107, #56 ) ) ;
#140 = FACE_OUTER_BOUND ( 'NONE', #94, .T. ) ;
#141 = ORIENTED_EDGE ( 'NONE', *, *, #171, .T. ) ;
#142 = EDGE_LOOP ( 'NONE', ( #127, #105 ) ) ;
#143 = ORIENTED_EDGE ( 'NONE', *, *, #168, .F. ) ;
#144 = ORIENTED_EDGE ( 'NONE', *, *, #171, .F. ) ;
#145 = FACE_OUTER_BOUND ( 'NONE', #48, .T. ) ;
#146 = APPROVAL_DATE_TIME ( #62, #262 ) ;
#147 = CIRCLE ( 'NONE', #154, 3.000000000000000400 ) ;
#148 = CALENDAR_DATE ( 2014, 6, 8 ) ;
#149 = FACE_OUTER_BOUND ( 'NONE', #142, .T. ) ;
#150 = CIRCLE ( 'NONE', #156, 3.000000000000000400 ) ;
#151 = ORIENTED_EDGE ( 'NONE', *, *, #172, .T. ) ;
#152 = ORIENTED_EDGE ( 'NONE', *, *, #179, .F. ) ;
#153 = AXIS2_PLACEMENT_3D ( 'NONE', #223, #233, #230 ) ;
#154 = AXIS2_PLACEMENT_3D ( 'NONE', #200, #219, #220 ) ;
#155 = AXIS2_PLACEMENT_3D ( 'NONE', #191, #185, #207 ) ;
#156 = AXIS2_PLACEMENT_3D ( 'NONE', #208, #243, #231 ) ;
#157 = AXIS2_PLACEMENT_3D ( 'NONE', #34, #33, #30 ) ;
#158 = AXIS2_PLACEMENT_3D ( 'NONE', #190, #204, #201 ) ;
#159 = AXIS2_PLACEMENT_3D ( 'NONE', #29, #28, #23 ) ;
#160 = AXIS2_PLACEMENT_3D ( 'NONE', #195, #189, #214 ) ;
#161 = AXIS2_PLACEMENT_3D ( 'NONE', #206, #217, #210 ) ;
#162 = AXIS2_PLACEMENT_3D ( 'NONE', #192, #194, #186 ) ;
#163 = AXIS2_PLACEMENT_3D ( 'NONE', #32, #31, #27 ) ;
#164 = AXIS2_PLACEMENT_3D ( 'NONE', #26, #25, #24 ) ;
#165 = EDGE_CURVE ( 'NONE', #35, #16, #83, .T. ) ;
#166 = AXIS2_PLACEMENT_3D ( 'NONE', #247, #229, #225 ) ;
#167 = EDGE_CURVE ( 'NONE', #20, #13, #135, .T. ) ;
#168 = EDGE_CURVE ( 'NONE', #8, #12, #111, .T. ) ;
#169 = EDGE_CURVE ( 'NONE', #12, #8, #126, .T. ) ;
#170 = EDGE_CURVE ( 'NONE', #8, #21, #112, .T. ) ;
#171 = EDGE_CURVE ( 'NONE', #16, #35, #123, .T. ) ;
#172 = EDGE_CURVE ( 'NONE', #16, #20, #79, .T. ) ;
#173 = EDGE_CURVE ( 'NONE', #13, #20, #109, .T. ) ;
#174 = EDGE_CURVE ( 'NONE', #35, #13, #113, .T. ) ;
#175 = EDGE_CURVE ( 'NONE', #12, #15, #117, .T. ) ;
#176 = EDGE_CURVE ( 'NONE', #21, #20, #120, .T. ) ;
#177 = EDGE_CURVE ( 'NONE', #15, #13, #100, .T. ) ;
#178 = EDGE_CURVE ( 'NONE', #21, #15, #147, .T. ) ;
#179 = EDGE_CURVE ( 'NONE', #15, #21, #150, .T. ) ;
#180 = AXIS2_PLACEMENT_3D ( 'NONE', #22, #7, #11 ) ;
#181 = AXIS2_PLACEMENT_3D ( 'NONE', #193, #199, #202 ) ;
#182 = PERSON ( 'UNSPECIFIED', 'UNSPECIFIED', 'UNSPECIFIED', ('UNSPECIFIED'), ('UNSPECIFIED'), ('UNSPECIFIED') ) ;
#183 = PRODUCT ( 'WRA6', 'WRA6', '', ( #226 ) ) ;
#184 = AXIS2_PLACEMENT_3D ( 'NONE', #203, #196, #188 ) ;
#185 = DIRECTION ( 'NONE',  ( -1.000000000000000000, 0.0000000000000000000, 0.0000000000000000000 ) ) ;
#186 = DIRECTION ( 'NONE',  ( 0.0000000000000000000, 0.0000000000000000000, -1.000000000000000000 ) ) ;
#187 = PLANE ( 'NONE',  #181 ) ;
#188 = DIRECTION ( 'NONE',  ( 0.0000000000000000000, 0.0000000000000000000, -1.000000000000000000 ) ) ;
#189 = DIRECTION ( 'NONE',  ( -1.000000000000000000, -0.0000000000000000000, -0.0000000000000000000 ) ) ;
#190 = CARTESIAN_POINT ( 'NONE',  ( -3000.000000000000000, 0.0000000000000000000, 0.0000000000000000000 ) ) ;
#191 = CARTESIAN_POINT ( 'NONE',  ( 2999.500000000000500, 0.0000000000000000000, 0.0000000000000000000 ) ) ;
#192 = CARTESIAN_POINT ( 'NONE',  ( 2999.500000000000500, 0.0000000000000000000, 0.0000000000000000000 ) ) ;
#193 = CARTESIAN_POINT ( 'NONE',  ( 3000.000000000000000, 0.0000000000000000000, 0.0000000000000000000 ) ) ;
#194 = DIRECTION ( 'NONE',  ( -1.000000000000000000, 0.0000000000000000000, 0.0000000000000000000 ) ) ;
#195 = CARTESIAN_POINT ( 'NONE',  ( -3000.000000000000000, 0.0000000000000000000, 0.0000000000000000000 ) ) ;
#196 = DIRECTION ( 'NONE',  ( 1.000000000000000000, 0.0000000000000000000, 0.0000000000000000000 ) ) ;
#197 = DIRECTION ( 'NONE',  ( 0.7071067811866276200, 0.0000000000000000000, -0.7071067811864675300 ) ) ;
#198 = DIRECTION ( 'NONE',  ( 1.000000000000000000, 0.0000000000000000000, 0.0000000000000000000 ) ) ;
#199 = DIRECTION ( 'NONE',  ( 1.000000000000000000, 0.0000000000000000000, 0.0000000000000000000 ) ) ;
#200 = CARTESIAN_POINT ( 'NONE',  ( -2999.500000000000500, 0.0000000000000000000, 0.0000000000000000000 ) ) ;
#201 = DIRECTION ( 'NONE',  ( 0.0000000000000000000, 0.0000000000000000000, -1.000000000000000000 ) ) ;
#202 = DIRECTION ( 'NONE',  ( 0.0000000000000000000, 0.0000000000000000000, -1.000000000000000000 ) ) ;
#203 = CARTESIAN_POINT ( 'NONE',  ( 3000.000000000000000, 0.0000000000000000000, 0.0000000000000000000 ) ) ;
#204 = DIRECTION ( 'NONE',  ( -1.000000000000000000, -0.0000000000000000000, -0.0000000000000000000 ) ) ;
#205 = CARTESIAN_POINT ( 'NONE',  ( -2999.500000000000500, 0.0000000000000000000, -3.000000000000000400 ) ) ;
#206 = CARTESIAN_POINT ( 'NONE',  ( 3000.000000000000000, 0.0000000000000000000, 0.0000000000000000000 ) ) ;
#207 = DIRECTION ( 'NONE',  ( 0.0000000000000000000, 0.0000000000000000000, -1.000000000000000000 ) ) ;
#208 = CARTESIAN_POINT ( 'NONE',  ( -2999.500000000000500, 0.0000000000000000000, 0.0000000000000000000 ) ) ;
#209 = CARTESIAN_POINT ( 'NONE',  ( 3000.000000000000000, 3.061616997868861400E-016, -2.500000000000390800 ) ) ;
#210 = DIRECTION ( 'NONE',  ( 0.0000000000000000000, 0.0000000000000000000, -1.000000000000000000 ) ) ;
#211 = CARTESIAN_POINT ( 'NONE',  ( -3000.000000000000000, 0.0000000000000000000, -3.000000000000000400 ) ) ;
#212 = DIRECTION ( 'NONE',  ( 0.7071067811866276200, 8.659560562353954200E-017, 0.7071067811864675300 ) ) ;
#213 = CARTESIAN_POINT ( 'NONE',  ( -2999.500000000000500, 3.673940397442060400E-016, 3.000000000000000400 ) ) ;
#214 = DIRECTION ( 'NONE',  ( 0.0000000000000000000, 0.0000000000000000000, -1.000000000000000000 ) ) ;
#215 = DIRECTION ( 'NONE',  ( -0.7071067811866276200, 8.659560562353954200E-017, -0.7071067811864675300 ) ) ;
#216 = CARTESIAN_POINT ( 'NONE',  ( 3000.000000000000000, 0.0000000000000000000, 2.500000000000390800 ) ) ;
#217 = DIRECTION ( 'NONE',  ( 1.000000000000000000, 0.0000000000000000000, 0.0000000000000000000 ) ) ;
#218 = DIRECTION ( 'NONE',  ( -0.7071067811866276200, 0.0000000000000000000, 0.7071067811864675300 ) ) ;
#219 = DIRECTION ( 'NONE',  ( 1.000000000000000000, -0.0000000000000000000, -0.0000000000000000000 ) ) ;
#220 = DIRECTION ( 'NONE',  ( 0.0000000000000000000, 0.0000000000000000000, -1.000000000000000000 ) ) ;
#221 = DIRECTION ( 'NONE',  ( 1.000000000000000000, 0.0000000000000000000, 0.0000000000000000000 ) ) ;
#222 = CARTESIAN_POINT ( 'NONE',  ( -3000.000000000000000, 3.673940397442060400E-016, 3.000000000000000400 ) ) ;
#223 = CARTESIAN_POINT ( 'NONE',  ( 0.0000000000000000000, 0.0000000000000000000, 0.0000000000000000000 ) ) ;
#224 = PLANE ( 'NONE',  #166 ) ;
#225 = DIRECTION ( 'NONE',  ( 0.0000000000000000000, 0.0000000000000000000, -1.000000000000000000 ) ) ;
#226 = MECHANICAL_CONTEXT ( 'NONE', #228, 'mechanical' ) ;
#227 = DIRECTION ( 'NONE',  ( 1.000000000000000000, -0.0000000000000000000, -0.0000000000000000000 ) ) ;
#228 = APPLICATION_CONTEXT ( 'configuration controlled 3d designs of mechanical parts and assemblies' ) ;
#229 = DIRECTION ( 'NONE',  ( 1.000000000000000000, 0.0000000000000000000, 0.0000000000000000000 ) ) ;
#230 = DIRECTION ( 'NONE',  ( 1.000000000000000000, 0.0000000000000000000, 0.0000000000000000000 ) ) ;
#231 = DIRECTION ( 'NONE',  ( 0.0000000000000000000, 0.0000000000000000000, -1.000000000000000000 ) ) ;
#232 = PERSON_AND_ORGANIZATION_ROLE ( 'design_owner' ) ;
#233 = DIRECTION ( 'NONE',  ( 0.0000000000000000000, 0.0000000000000000000, 1.000000000000000000 ) ) ;
#234 = APPROVAL_ROLE ( '' ) ;
#235 =( NAMED_UNIT ( * ) SI_UNIT ( $, .STERADIAN. ) SOLID_ANGLE_UNIT ( ) );
#236 = CARTESIAN_POINT ( 'NONE',  ( -2999.500000000000500, 0.0000000000000000000, 0.0000000000000000000 ) ) ;
#237 = DIRECTION ( 'NONE',  ( 0.0000000000000000000, 0.0000000000000000000, -1.000000000000000000 ) ) ;
#238 = APPROVAL_STATUS ( 'not_yet_approved' ) ;
#239 = SECURITY_CLASSIFICATION_LEVEL ( 'unclassified' ) ;
#240 =( LENGTH_UNIT ( ) NAMED_UNIT ( * ) SI_UNIT ( .MILLI., .METRE. ) );
#241 = APPLICATION_PROTOCOL_DEFINITION ( 'international standard', 'config_control_design', 1994, #244 ) ;
#242 =( NAMED_UNIT ( * ) PLANE_ANGLE_UNIT ( ) SI_UNIT ( $, .RADIAN. ) );
#243 = DIRECTION ( 'NONE',  ( 1.000000000000000000, -0.0000000000000000000, -0.0000000000000000000 ) ) ;
#244 = APPLICATION_CONTEXT ( 'configuration controlled 3d designs of mechanical parts and assemblies' ) ;
#245 = PERSON_AND_ORGANIZATION_ROLE ( 'design_supplier' ) ;
#246 = APPLICATION_PROTOCOL_DEFINITION ( 'international standard', 'config_control_design', 1994, #228 ) ;
#247 = CARTESIAN_POINT ( 'NONE',  ( -3000.000000000000000, 0.0000000000000000000, 0.0000000000000000000 ) ) ;
#248 = PERSON_AND_ORGANIZATION_ROLE ( 'creator' ) ;
#249 = DATE_TIME_ROLE ( 'creation_date' ) ;
#250 = APPROVAL_STATUS ( 'not_yet_approved' ) ;
#251 = PERSON_AND_ORGANIZATION_ROLE ( 'creator' ) ;
#252 = APPROVAL_ROLE ( '' ) ;
#253 = ADVANCED_FACE ( 'NONE', ( #145 ), #101, .T. ) ;
#254 = ADVANCED_FACE ( 'NONE', ( #149 ), #224, .F. ) ;
#255 = PRODUCT_DEFINITION_SHAPE ( 'NONE', 'NONE',  #273 ) ;
#256 = DESIGN_CONTEXT ( 'detailed design', #244, 'design' ) ;
#257 = AXIS2_PLACEMENT_3D ( 'NONE', #236, #227, #237 ) ;
#258 = APPROVAL ( #250, 'UNSPECIFIED' ) ;
#259 = CC_DESIGN_APPROVAL ( #258, ( #263 ) ) ;
#260 = CC_DESIGN_PERSON_AND_ORGANIZATION_ASSIGNMENT ( #77, #3, ( #270 ) ) ;
#261 = CC_DESIGN_PERSON_AND_ORGANIZATION_ASSIGNMENT ( #81, #245, ( #263 ) ) ;
#262 = APPROVAL ( #238, 'UNSPECIFIED' ) ;
#263 = PRODUCT_DEFINITION_FORMATION_WITH_SPECIFIED_SOURCE ( 'ANY', '', #183, .NOT_KNOWN. ) ;
#264 = CC_DESIGN_DATE_AND_TIME_ASSIGNMENT ( #96, #249, ( #273 ) ) ;
#265 = CC_DESIGN_APPROVAL ( #262, ( #273 ) ) ;
#266 = CC_DESIGN_APPROVAL ( #267, ( #270 ) ) ;
#267 = APPROVAL ( #1, 'UNSPECIFIED' ) ;
#268 = CC_DESIGN_DATE_AND_TIME_ASSIGNMENT ( #73, #2, ( #270 ) ) ;
#269 = CC_DESIGN_PERSON_AND_ORGANIZATION_ASSIGNMENT ( #131, #248, ( #273 ) ) ;
#270 = SECURITY_CLASSIFICATION ( '', '', #239 ) ;
#271 = CC_DESIGN_PERSON_AND_ORGANIZATION_ASSIGNMENT ( #84, #251, ( #263 ) ) ;
#272 = PRODUCT_RELATED_PRODUCT_CATEGORY ( 'detail', '', ( #183 ) ) ;
#273 = PRODUCT_DEFINITION ( 'UNKNOWN', '', #263, #256 ) ;
#274 = CC_DESIGN_SECURITY_CLASSIFICATION ( #270, ( #263 ) ) ;
#275 = CC_DESIGN_PERSON_AND_ORGANIZATION_ASSIGNMENT ( #59, #232, ( #183 ) ) ;
ENDSEC;
END-ISO-10303-21;
