ISO-10303-21;
HEADER;
FILE_DESCRIPTION (( 'STEP AP203' ),
    '1' );
FILE_NAME ('SF18.STEP',
    '2016-03-18T07:37:58',
    ( '' ),
    ( '' ),
    'SwSTEP 2.0',
    'SolidWorks 2010',
    '' );
FILE_SCHEMA (( 'CONFIG_CONTROL_DESIGN' ));
ENDSEC;

DATA;
#1 = PRODUCT ( 'SF18', 'SF18', '', ( #145 ) ) ;
#2 = PERSON ( 'UNSPECIFIED', 'UNSPECIFIED', 'UNSPECIFIED', ('UNSPECIFIED'), ('UNSPECIFIED'), ('UNSPECIFIED') ) ;
#3 = ADVANCED_FACE ( 'NONE', ( #57, #58 ), #45, .T. ) ;
#4 = ADVANCED_FACE ( 'NONE', ( #54, #48 ), #51, .T. ) ;
#5 = ADVANCED_FACE ( 'NONE', ( #65 ), #114, .F. ) ;
#6 = MANIFOLD_SOLID_BREP ( 'Chamfer1', #46 ) ;
#7 = ADVANCED_BREP_SHAPE_REPRESENTATION ( 'SF18', ( #6, #16 ), #66 ) ;
#8 = UNCERTAINTY_MEASURE_WITH_UNIT (LENGTH_MEASURE( 1.000000000000000100E-005 ), #147, 'distance_accuracy_value', 'NONE');
#9 = DESIGN_CONTEXT ( 'detailed design', #139, 'design' ) ;
#10 = PRODUCT_DEFINITION_SHAPE ( 'NONE', 'NONE',  #23 ) ;
#11 = AXIS2_PLACEMENT_3D ( 'NONE', #137, #136, #138 ) ;
#12 = EDGE_CURVE ( 'NONE', #166, #166, #42, .T. ) ;
#13 = EDGE_CURVE ( 'NONE', #124, #124, #43, .T. ) ;
#14 = AXIS2_PLACEMENT_3D ( 'NONE', #175, #146, #128 ) ;
#15 = AXIS2_PLACEMENT_3D ( 'NONE', #120, #122, #162 ) ;
#16 = AXIS2_PLACEMENT_3D ( 'NONE', #153, #150, #154 ) ;
#17 = AXIS2_PLACEMENT_3D ( 'NONE', #135, #131, #132 ) ;
#18 = CC_DESIGN_PERSON_AND_ORGANIZATION_ASSIGNMENT ( #79, #173, ( #23 ) ) ;
#19 = CC_DESIGN_APPROVAL ( #25, ( #23 ) ) ;
#20 = AXIS2_PLACEMENT_3D ( 'NONE', #161, #118, #116 ) ;
#21 = AXIS2_PLACEMENT_3D ( 'NONE', #130, #126, #125 ) ;
#22 = CC_DESIGN_PERSON_AND_ORGANIZATION_ASSIGNMENT ( #69, #160, ( #1 ) ) ;
#23 = PRODUCT_DEFINITION ( 'UNKNOWN', '', #29, #9 ) ;
#24 = AXIS2_PLACEMENT_3D ( 'NONE', #163, #149, #169 ) ;
#25 = APPROVAL ( #117, 'UNSPECIFIED' ) ;
#26 = EDGE_CURVE ( 'NONE', #159, #159, #38, .T. ) ;
#27 = EDGE_CURVE ( 'NONE', #170, #170, #72, .T. ) ;
#28 = CC_DESIGN_DATE_AND_TIME_ASSIGNMENT ( #85, #152, ( #23 ) ) ;
#29 = PRODUCT_DEFINITION_FORMATION_WITH_SPECIFIED_SOURCE ( 'ANY', '', #1, .NOT_KNOWN. ) ;
#30 = AXIS2_PLACEMENT_3D ( 'NONE', #140, #123, #121 ) ;
#31 = AXIS2_PLACEMENT_3D ( 'NONE', #151, #148, #133 ) ;
#32 = ADVANCED_FACE ( 'NONE', ( #44 ), #119, .T. ) ;
#33 = APPROVAL_PERSON_ORGANIZATION ( #70, #25, #127 ) ;
#34 = EDGE_LOOP ( 'NONE', ( #56 ) ) ;
#35 = FACE_OUTER_BOUND ( 'NONE', #61, .T. ) ;
#36 = FACE_BOUND ( 'NONE', #40, .T. ) ;
#37 = CONICAL_SURFACE ( 'NONE', #24, 8.500000000002394500, 0.7853981633962183700 ) ;
#38 = CIRCLE ( 'NONE', #30, 9.000000000000000000 ) ;
#39 = COORDINATED_UNIVERSAL_TIME_OFFSET ( 2, 0, .AHEAD. ) ;
#40 = EDGE_LOOP ( 'NONE', ( #101 ) ) ;
#41 = ORIENTED_EDGE ( 'NONE', *, *, #27, .F. ) ;
#42 = CIRCLE ( 'NONE', #14, 8.500000000000618200 ) ;
#43 = CIRCLE ( 'NONE', #21, 8.500000000002394500 ) ;
#44 = FACE_OUTER_BOUND ( 'NONE', #34, .T. ) ;
#45 = CONICAL_SURFACE ( 'NONE', #11, 9.000000000000000000, 0.7853981633975506400 ) ;
#46 = CLOSED_SHELL ( 'NONE', ( #4, #5, #32, #3, #113 ) ) ;
#47 = PERSON_AND_ORGANIZATION ( #2, #68 ) ;
#48 = FACE_OUTER_BOUND ( 'NONE', #55, .T. ) ;
#49 = ORIENTED_EDGE ( 'NONE', *, *, #12, .F. ) ;
#50 = ORIENTED_EDGE ( 'NONE', *, *, #26, .F. ) ;
#51 = CYLINDRICAL_SURFACE ( 'NONE', #31, 9.000000000000000000 ) ;
#52 = ORIENTED_EDGE ( 'NONE', *, *, #27, .T. ) ;
#53 = EDGE_LOOP ( 'NONE', ( #49 ) ) ;
#54 = FACE_OUTER_BOUND ( 'NONE', #73, .T. ) ;
#55 = EDGE_LOOP ( 'NONE', ( #52 ) ) ;
#56 = ORIENTED_EDGE ( 'NONE', *, *, #13, .T. ) ;
#57 = FACE_BOUND ( 'NONE', #53, .T. ) ;
#58 = FACE_OUTER_BOUND ( 'NONE', #78, .T. ) ;
#59 = CALENDAR_DATE ( 2016, 18, 3 ) ;
#60 = DATE_AND_TIME ( #59, #99 ) ;
#61 = EDGE_LOOP ( 'NONE', ( #41 ) ) ;
#62 = EDGE_LOOP ( 'NONE', ( #71 ) ) ;
#63 = DATE_AND_TIME ( #87, #83 ) ;
#64 = COORDINATED_UNIVERSAL_TIME_OFFSET ( 2, 0, .AHEAD. ) ;
#65 = FACE_OUTER_BOUND ( 'NONE', #62, .T. ) ;
#66 =( GEOMETRIC_REPRESENTATION_CONTEXT ( 3 ) GLOBAL_UNCERTAINTY_ASSIGNED_CONTEXT ( ( #8 ) ) GLOBAL_UNIT_ASSIGNED_CONTEXT ( ( #147, #144, #143 ) ) REPRESENTATION_CONTEXT ( 'NONE', 'WORKASPACE' ) );
#67 = SHAPE_DEFINITION_REPRESENTATION ( #10, #7 ) ;
#68 = ORGANIZATION ( 'UNSPECIFIED', 'UNSPECIFIED', '' ) ;
#69 = PERSON_AND_ORGANIZATION ( #2, #68 ) ;
#70 = PERSON_AND_ORGANIZATION ( #2, #68 ) ;
#71 = ORIENTED_EDGE ( 'NONE', *, *, #12, .T. ) ;
#72 = CIRCLE ( 'NONE', #20, 9.000000000000000000 ) ;
#73 = EDGE_LOOP ( 'NONE', ( #100 ) ) ;
#74 = APPROVAL_DATE_TIME ( #63, #105 ) ;
#75 = APPROVAL_PERSON_ORGANIZATION ( #47, #105, #171 ) ;
#76 = LOCAL_TIME ( 9, 37, 58.00000000000000000, #39 ) ;
#77 = CALENDAR_DATE ( 2016, 18, 3 ) ;
#78 = EDGE_LOOP ( 'NONE', ( #50 ) ) ;
#79 = PERSON_AND_ORGANIZATION ( #2, #68 ) ;
#80 = APPROVAL_DATE_TIME ( #81, #25 ) ;
#81 = DATE_AND_TIME ( #77, #76 ) ;
#82 = COORDINATED_UNIVERSAL_TIME_OFFSET ( 2, 0, .AHEAD. ) ;
#83 = LOCAL_TIME ( 9, 37, 58.00000000000000000, #64 ) ;
#84 = LOCAL_TIME ( 9, 37, 58.00000000000000000, #82 ) ;
#85 = DATE_AND_TIME ( #86, #84 ) ;
#86 = CALENDAR_DATE ( 2016, 18, 3 ) ;
#87 = CALENDAR_DATE ( 2016, 18, 3 ) ;
#88 = PERSON_AND_ORGANIZATION ( #2, #68 ) ;
#89 = APPROVAL_PERSON_ORGANIZATION ( #88, #108, #141 ) ;
#90 = COORDINATED_UNIVERSAL_TIME_OFFSET ( 2, 0, .AHEAD. ) ;
#91 = LOCAL_TIME ( 9, 37, 58.00000000000000000, #90 ) ;
#92 = CALENDAR_DATE ( 2016, 18, 3 ) ;
#93 = DATE_AND_TIME ( #92, #91 ) ;
#94 = APPROVAL_DATE_TIME ( #93, #108 ) ;
#95 = PERSON_AND_ORGANIZATION ( #2, #68 ) ;
#96 = PERSON_AND_ORGANIZATION ( #2, #68 ) ;
#97 = PERSON_AND_ORGANIZATION ( #2, #68 ) ;
#98 = COORDINATED_UNIVERSAL_TIME_OFFSET ( 2, 0, .AHEAD. ) ;
#99 = LOCAL_TIME ( 9, 37, 58.00000000000000000, #98 ) ;
#100 = ORIENTED_EDGE ( 'NONE', *, *, #26, .T. ) ;
#101 = ORIENTED_EDGE ( 'NONE', *, *, #13, .F. ) ;
#102 = CC_DESIGN_APPROVAL ( #108, ( #29 ) ) ;
#103 = CC_DESIGN_SECURITY_CLASSIFICATION ( #110, ( #29 ) ) ;
#104 = CC_DESIGN_DATE_AND_TIME_ASSIGNMENT ( #60, #172, ( #110 ) ) ;
#105 = APPROVAL ( #167, 'UNSPECIFIED' ) ;
#106 = PRODUCT_RELATED_PRODUCT_CATEGORY ( 'detail', '', ( #1 ) ) ;
#107 = CC_DESIGN_PERSON_AND_ORGANIZATION_ASSIGNMENT ( #96, #174, ( #29 ) ) ;
#108 = APPROVAL ( #115, 'UNSPECIFIED' ) ;
#109 = CC_DESIGN_PERSON_AND_ORGANIZATION_ASSIGNMENT ( #95, #129, ( #29 ) ) ;
#110 = SECURITY_CLASSIFICATION ( '', '', #155 ) ;
#111 = CC_DESIGN_PERSON_AND_ORGANIZATION_ASSIGNMENT ( #97, #165, ( #110 ) ) ;
#112 = CC_DESIGN_APPROVAL ( #105, ( #110 ) ) ;
#113 = ADVANCED_FACE ( 'NONE', ( #35, #36 ), #37, .T. ) ;
#114 = PLANE ( 'NONE',  #17 ) ;
#115 = APPROVAL_STATUS ( 'not_yet_approved' ) ;
#116 = DIRECTION ( 'NONE',  ( 0.0000000000000000000, 0.0000000000000000000, -1.000000000000000000 ) ) ;
#117 = APPROVAL_STATUS ( 'not_yet_approved' ) ;
#118 = DIRECTION ( 'NONE',  ( -1.000000000000000000, 0.0000000000000000000, 0.0000000000000000000 ) ) ;
#119 = PLANE ( 'NONE',  #15 ) ;
#120 = CARTESIAN_POINT ( 'NONE',  ( 3000.000000000000000, 0.0000000000000000000, 0.0000000000000000000 ) ) ;
#121 = DIRECTION ( 'NONE',  ( 0.0000000000000000000, 0.0000000000000000000, -1.000000000000000000 ) ) ;
#122 = DIRECTION ( 'NONE',  ( 1.000000000000000000, 0.0000000000000000000, 0.0000000000000000000 ) ) ;
#123 = DIRECTION ( 'NONE',  ( 1.000000000000000000, -0.0000000000000000000, -0.0000000000000000000 ) ) ;
#124 = VERTEX_POINT ( 'NONE', #158 ) ;
#125 = DIRECTION ( 'NONE',  ( 0.0000000000000000000, 0.0000000000000000000, -1.000000000000000000 ) ) ;
#126 = DIRECTION ( 'NONE',  ( 1.000000000000000000, 0.0000000000000000000, 0.0000000000000000000 ) ) ;
#127 = APPROVAL_ROLE ( '' ) ;
#128 = DIRECTION ( 'NONE',  ( 0.0000000000000000000, 0.0000000000000000000, -1.000000000000000000 ) ) ;
#129 = PERSON_AND_ORGANIZATION_ROLE ( 'creator' ) ;
#130 = CARTESIAN_POINT ( 'NONE',  ( 3000.000000000000000, 0.0000000000000000000, 0.0000000000000000000 ) ) ;
#131 = DIRECTION ( 'NONE',  ( 1.000000000000000000, 0.0000000000000000000, 0.0000000000000000000 ) ) ;
#132 = DIRECTION ( 'NONE',  ( 0.0000000000000000000, 0.0000000000000000000, -1.000000000000000000 ) ) ;
#133 = DIRECTION ( 'NONE',  ( 0.0000000000000000000, 0.0000000000000000000, -1.000000000000000000 ) ) ;
#134 = CARTESIAN_POINT ( 'NONE',  ( -2999.500000000000900, 0.0000000000000000000, -9.000000000000000000 ) ) ;
#135 = CARTESIAN_POINT ( 'NONE',  ( -3000.000000000000000, 0.0000000000000000000, 0.0000000000000000000 ) ) ;
#136 = DIRECTION ( 'NONE',  ( 1.000000000000000000, -0.0000000000000000000, -0.0000000000000000000 ) ) ;
#137 = CARTESIAN_POINT ( 'NONE',  ( -2999.500000000000900, 0.0000000000000000000, 0.0000000000000000000 ) ) ;
#138 = DIRECTION ( 'NONE',  ( 0.0000000000000000000, 0.0000000000000000000, -1.000000000000000000 ) ) ;
#139 = APPLICATION_CONTEXT ( 'configuration controlled 3d designs of mechanical parts and assemblies' ) ;
#140 = CARTESIAN_POINT ( 'NONE',  ( -2999.500000000000900, 0.0000000000000000000, 0.0000000000000000000 ) ) ;
#141 = APPROVAL_ROLE ( '' ) ;
#142 = APPLICATION_PROTOCOL_DEFINITION ( 'international standard', 'config_control_design', 1994, #139 ) ;
#143 =( NAMED_UNIT ( * ) SI_UNIT ( $, .STERADIAN. ) SOLID_ANGLE_UNIT ( ) );
#144 =( NAMED_UNIT ( * ) PLANE_ANGLE_UNIT ( ) SI_UNIT ( $, .RADIAN. ) );
#145 = MECHANICAL_CONTEXT ( 'NONE', #156, 'mechanical' ) ;
#146 = DIRECTION ( 'NONE',  ( -1.000000000000000000, -0.0000000000000000000, -0.0000000000000000000 ) ) ;
#147 =( LENGTH_UNIT ( ) NAMED_UNIT ( * ) SI_UNIT ( .MILLI., .METRE. ) );
#148 = DIRECTION ( 'NONE',  ( 1.000000000000000000, 0.0000000000000000000, 0.0000000000000000000 ) ) ;
#149 = DIRECTION ( 'NONE',  ( -1.000000000000000000, 0.0000000000000000000, 0.0000000000000000000 ) ) ;
#150 = DIRECTION ( 'NONE',  ( 0.0000000000000000000, 0.0000000000000000000, 1.000000000000000000 ) ) ;
#151 = CARTESIAN_POINT ( 'NONE',  ( -3000.000000000000000, 0.0000000000000000000, 0.0000000000000000000 ) ) ;
#152 = DATE_TIME_ROLE ( 'creation_date' ) ;
#153 = CARTESIAN_POINT ( 'NONE',  ( 0.0000000000000000000, 0.0000000000000000000, 0.0000000000000000000 ) ) ;
#154 = DIRECTION ( 'NONE',  ( 1.000000000000000000, 0.0000000000000000000, 0.0000000000000000000 ) ) ;
#155 = SECURITY_CLASSIFICATION_LEVEL ( 'unclassified' ) ;
#156 = APPLICATION_CONTEXT ( 'configuration controlled 3d designs of mechanical parts and assemblies' ) ;
#157 = CARTESIAN_POINT ( 'NONE',  ( -3000.000000000000000, 0.0000000000000000000, -8.500000000000618200 ) ) ;
#158 = CARTESIAN_POINT ( 'NONE',  ( 3000.000000000000000, 0.0000000000000000000, -8.500000000002394500 ) ) ;
#159 = VERTEX_POINT ( 'NONE', #134 ) ;
#160 = PERSON_AND_ORGANIZATION_ROLE ( 'design_owner' ) ;
#161 = CARTESIAN_POINT ( 'NONE',  ( 2999.500000000001400, 0.0000000000000000000, 0.0000000000000000000 ) ) ;
#162 = DIRECTION ( 'NONE',  ( 0.0000000000000000000, 0.0000000000000000000, -1.000000000000000000 ) ) ;
#163 = CARTESIAN_POINT ( 'NONE',  ( 3000.000000000000000, 0.0000000000000000000, 0.0000000000000000000 ) ) ;
#164 = CARTESIAN_POINT ( 'NONE',  ( 2999.500000000001400, 0.0000000000000000000, -9.000000000000000000 ) ) ;
#165 = PERSON_AND_ORGANIZATION_ROLE ( 'classification_officer' ) ;
#166 = VERTEX_POINT ( 'NONE', #157 ) ;
#167 = APPROVAL_STATUS ( 'not_yet_approved' ) ;
#168 = APPLICATION_PROTOCOL_DEFINITION ( 'international standard', 'config_control_design', 1994, #156 ) ;
#169 = DIRECTION ( 'NONE',  ( 0.0000000000000000000, 0.0000000000000000000, 1.000000000000000000 ) ) ;
#170 = VERTEX_POINT ( 'NONE', #164 ) ;
#171 = APPROVAL_ROLE ( '' ) ;
#172 = DATE_TIME_ROLE ( 'classification_date' ) ;
#173 = PERSON_AND_ORGANIZATION_ROLE ( 'creator' ) ;
#174 = PERSON_AND_ORGANIZATION_ROLE ( 'design_supplier' ) ;
#175 = CARTESIAN_POINT ( 'NONE',  ( -3000.000000000000000, 0.0000000000000000000, 0.0000000000000000000 ) ) ;
ENDSEC;
END-ISO-10303-21;
