ISO-10303-21;
HEADER;
FILE_DESCRIPTION (( 'STEP AP203' ),
    '1' );
FILE_NAME ('WRB50.STEP',
    '2014-08-06T09:53:46',
    ( 'Ovidiu Buiga' ),
    ( '' ),
    'SwSTEP 2.0',
    'SolidWorks 2010',
    '' );
FILE_SCHEMA (( 'CONFIG_CONTROL_DESIGN' ));
ENDSEC;

DATA;
#1 = SECURITY_CLASSIFICATION ( '', '', #265 ) ;
#2 = CC_DESIGN_PERSON_AND_ORGANIZATION_ASSIGNMENT ( #115, #264, ( #6 ) ) ;
#3 = EDGE_CURVE ( 'NONE', #74, #86, #185, .T. ) ;
#4 = CC_DESIGN_APPROVAL ( #10, ( #6 ) ) ;
#5 = EDGE_CURVE ( 'NONE', #76, #74, #199, .T. ) ;
#6 = PRODUCT_DEFINITION_FORMATION_WITH_SPECIFIED_SOURCE ( 'ANY', '', #246, .NOT_KNOWN. ) ;
#7 = AXIS2_PLACEMENT_3D ( 'NONE', #231, #230, #239 ) ;
#8 = CC_DESIGN_PERSON_AND_ORGANIZATION_ASSIGNMENT ( #198, #254, ( #246 ) ) ;
#9 = AXIS2_PLACEMENT_3D ( 'NONE', #77, #82, #73 ) ;
#10 = APPROVAL ( #261, 'UNSPECIFIED' ) ;
#11 = AXIS2_PLACEMENT_3D ( 'NONE', #241, #236, #237 ) ;
#12 = CC_DESIGN_DATE_AND_TIME_ASSIGNMENT ( #145, #260, ( #29 ) ) ;
#13 = CC_DESIGN_PERSON_AND_ORGANIZATION_ASSIGNMENT ( #122, #266, ( #1 ) ) ;
#14 = AXIS2_PLACEMENT_3D ( 'NONE', #62, #64, #60 ) ;
#15 = CC_DESIGN_PERSON_AND_ORGANIZATION_ASSIGNMENT ( #97, #259, ( #29 ) ) ;
#16 = AXIS2_PLACEMENT_3D ( 'NONE', #70, #66, #54 ) ;
#17 = EDGE_CURVE ( 'NONE', #93, #78, #155, .T. ) ;
#18 = EDGE_CURVE ( 'NONE', #85, #75, #146, .T. ) ;
#19 = EDGE_CURVE ( 'NONE', #85, #86, #125, .T. ) ;
#20 = EDGE_CURVE ( 'NONE', #75, #74, #163, .T. ) ;
#21 = EDGE_CURVE ( 'NONE', #78, #93, #124, .T. ) ;
#22 = EDGE_CURVE ( 'NONE', #88, #86, #128, .T. ) ;
#23 = CC_DESIGN_APPROVAL ( #28, ( #29 ) ) ;
#24 = AXIS2_PLACEMENT_3D ( 'NONE', #67, #69, #63 ) ;
#25 = EDGE_CURVE ( 'NONE', #75, #85, #135, .T. ) ;
#26 = EDGE_CURVE ( 'NONE', #86, #74, #184, .T. ) ;
#27 = AXIS2_PLACEMENT_3D ( 'NONE', #89, #83, #72 ) ;
#28 = APPROVAL ( #257, 'UNSPECIFIED' ) ;
#29 = PRODUCT_DEFINITION ( 'UNKNOWN', '', #6, #271 ) ;
#30 = EDGE_CURVE ( 'NONE', #78, #88, #151, .T. ) ;
#31 = EDGE_CURVE ( 'NONE', #93, #76, #126, .T. ) ;
#32 = EDGE_CURVE ( 'NONE', #76, #88, #96, .T. ) ;
#33 = AXIS2_PLACEMENT_3D ( 'NONE', #208, #207, #206 ) ;
#34 = EDGE_CURVE ( 'NONE', #88, #76, #193, .T. ) ;
#35 = AXIS2_PLACEMENT_3D ( 'NONE', #59, #223, #242 ) ;
#36 = AXIS2_PLACEMENT_3D ( 'NONE', #209, #205, #210 ) ;
#37 = AXIS2_PLACEMENT_3D ( 'NONE', #234, #228, #227 ) ;
#38 = PRODUCT_RELATED_PRODUCT_CATEGORY ( 'detail', '', ( #246 ) ) ;
#39 = AXIS2_PLACEMENT_3D ( 'NONE', #238, #233, #232 ) ;
#40 = CC_DESIGN_SECURITY_CLASSIFICATION ( #1, ( #6 ) ) ;
#41 = AXIS2_PLACEMENT_3D ( 'NONE', #80, #84, #81 ) ;
#42 = AXIS2_PLACEMENT_3D ( 'NONE', #53, #56, #57 ) ;
#43 = AXIS2_PLACEMENT_3D ( 'NONE', #224, #225, #226 ) ;
#44 = CC_DESIGN_APPROVAL ( #45, ( #1 ) ) ;
#45 = APPROVAL ( #268, 'UNSPECIFIED' ) ;
#46 = AXIS2_PLACEMENT_3D ( 'NONE', #219, #220, #270 ) ;
#47 = AXIS2_PLACEMENT_3D ( 'NONE', #203, #202, #204 ) ;
#48 = CC_DESIGN_PERSON_AND_ORGANIZATION_ASSIGNMENT ( #109, #263, ( #6 ) ) ;
#49 = CC_DESIGN_DATE_AND_TIME_ASSIGNMENT ( #180, #267, ( #1 ) ) ;
#50 = DIRECTION ( 'NONE',  ( 0.7071067811864837300, 0.0000000000000000000, -0.7071067811866114100 ) ) ;
#51 = CARTESIAN_POINT ( 'NONE',  ( -2999.500000000000000, 0.0000000000000000000, -25.00000000000000000 ) ) ;
#52 = CARTESIAN_POINT ( 'NONE',  ( -2999.500000000000000, 3.061616997868383000E-015, 25.00000000000000000 ) ) ;
#53 = CARTESIAN_POINT ( 'NONE',  ( 2999.499999999999500, 0.0000000000000000000, 0.0000000000000000000 ) ) ;
#54 = DIRECTION ( 'NONE',  ( 0.0000000000000000000, 0.0000000000000000000, -1.000000000000000000 ) ) ;
#55 = CARTESIAN_POINT ( 'NONE',  ( 2999.499999999999500, 0.0000000000000000000, -25.00000000000000000 ) ) ;
#56 = DIRECTION ( 'NONE',  ( -1.000000000000000000, 0.0000000000000000000, 0.0000000000000000000 ) ) ;
#57 = DIRECTION ( 'NONE',  ( 0.0000000000000000000, 0.0000000000000000000, -1.000000000000000000 ) ) ;
#58 = DIRECTION ( 'NONE',  ( -0.7071067811861722100, 8.659560562359531700E-017, -0.7071067811869229400 ) ) ;
#59 = CARTESIAN_POINT ( 'NONE',  ( -2999.500000000000000, 0.0000000000000000000, 0.0000000000000000000 ) ) ;
#60 = DIRECTION ( 'NONE',  ( 0.0000000000000000000, 0.0000000000000000000, -1.000000000000000000 ) ) ;
#61 = DIRECTION ( 'NONE',  ( 1.000000000000000000, 0.0000000000000000000, 0.0000000000000000000 ) ) ;
#62 = CARTESIAN_POINT ( 'NONE',  ( -2999.500000000000000, 0.0000000000000000000, 0.0000000000000000000 ) ) ;
#63 = DIRECTION ( 'NONE',  ( 0.0000000000000000000, 0.0000000000000000000, -1.000000000000000000 ) ) ;
#64 = DIRECTION ( 'NONE',  ( 1.000000000000000000, -0.0000000000000000000, -0.0000000000000000000 ) ) ;
#65 = CARTESIAN_POINT ( 'NONE',  ( -3000.000000000000000, 3.061616997868383000E-015, 25.00000000000000000 ) ) ;
#66 = DIRECTION ( 'NONE',  ( -1.000000000000000000, -0.0000000000000000000, -0.0000000000000000000 ) ) ;
#67 = CARTESIAN_POINT ( 'NONE',  ( 3000.000000000000000, 0.0000000000000000000, 0.0000000000000000000 ) ) ;
#68 = CARTESIAN_POINT ( 'NONE',  ( -2999.500000000000000, 3.061616997868383000E-015, 25.00000000000000000 ) ) ;
#69 = DIRECTION ( 'NONE',  ( 1.000000000000000000, 0.0000000000000000000, 0.0000000000000000000 ) ) ;
#70 = CARTESIAN_POINT ( 'NONE',  ( -3000.000000000000000, 0.0000000000000000000, 0.0000000000000000000 ) ) ;
#71 = DIRECTION ( 'NONE',  ( 0.7071067811864837300, 8.659560562355714300E-017, 0.7071067811866114100 ) ) ;
#72 = DIRECTION ( 'NONE',  ( 0.0000000000000000000, 0.0000000000000000000, -1.000000000000000000 ) ) ;
#73 = DIRECTION ( 'NONE',  ( 0.0000000000000000000, 0.0000000000000000000, -1.000000000000000000 ) ) ;
#74 = VERTEX_POINT ( 'NONE', #55 ) ;
#75 = VERTEX_POINT ( 'NONE', #222 ) ;
#76 = VERTEX_POINT ( 'NONE', #240 ) ;
#77 = CARTESIAN_POINT ( 'NONE',  ( 2999.499999999999500, 0.0000000000000000000, 0.0000000000000000000 ) ) ;
#78 = VERTEX_POINT ( 'NONE', #229 ) ;
#79 = CARTESIAN_POINT ( 'NONE',  ( 3000.000000000000000, 3.000384657910875800E-015, -24.49999999999886000 ) ) ;
#80 = CARTESIAN_POINT ( 'NONE',  ( -3000.000000000000000, 0.0000000000000000000, 0.0000000000000000000 ) ) ;
#81 = DIRECTION ( 'NONE',  ( 0.0000000000000000000, 0.0000000000000000000, -1.000000000000000000 ) ) ;
#82 = DIRECTION ( 'NONE',  ( -1.000000000000000000, 0.0000000000000000000, 0.0000000000000000000 ) ) ;
#83 = DIRECTION ( 'NONE',  ( 1.000000000000000000, 0.0000000000000000000, 0.0000000000000000000 ) ) ;
#84 = DIRECTION ( 'NONE',  ( -1.000000000000000000, -0.0000000000000000000, -0.0000000000000000000 ) ) ;
#85 = VERTEX_POINT ( 'NONE', #221 ) ;
#86 = VERTEX_POINT ( 'NONE', #245 ) ;
#87 = CARTESIAN_POINT ( 'NONE',  ( 3000.000000000000000, 0.0000000000000000000, 24.49999999999886000 ) ) ;
#88 = VERTEX_POINT ( 'NONE', #52 ) ;
#89 = CARTESIAN_POINT ( 'NONE',  ( 3000.000000000000000, 0.0000000000000000000, 0.0000000000000000000 ) ) ;
#90 = CARTESIAN_POINT ( 'NONE',  ( -3000.000000000000000, 0.0000000000000000000, -25.00000000000000000 ) ) ;
#91 = DIRECTION ( 'NONE',  ( 1.000000000000000000, 0.0000000000000000000, 0.0000000000000000000 ) ) ;
#92 = DIRECTION ( 'NONE',  ( -0.7071067811861722100, 0.0000000000000000000, 0.7071067811869229400 ) ) ;
#93 = VERTEX_POINT ( 'NONE', #244 ) ;
#94 = EDGE_LOOP ( 'NONE', ( #172, #173, #183, #187 ) ) ;
#95 = ORIENTED_EDGE ( 'NONE', *, *, #17, .T. ) ;
#96 = CIRCLE ( 'NONE', #14, 25.00000000000000000 ) ;
#97 = PERSON_AND_ORGANIZATION ( #247, #121 ) ;
#98 = EDGE_LOOP ( 'NONE', ( #162, #191, #190, #189 ) ) ;
#99 = SHAPE_DEFINITION_REPRESENTATION ( #272, #275 ) ;
#100 = APPROVAL_DATE_TIME ( #176, #28 ) ;
#101 = CONICAL_SURFACE ( 'NONE', #36, 25.00000000000000000, 0.7853981633975385400 ) ;
#102 = VECTOR ( 'NONE', #50, 1000.000000000000100 ) ;
#103 = APPROVAL_DATE_TIME ( #131, #10 ) ;
#104 = APPROVAL_PERSON_ORGANIZATION ( #188, #10, #262 ) ;
#105 = LOCAL_TIME ( 12, 53, 46.00000000000000000, #153 ) ;
#106 = CONICAL_SURFACE ( 'NONE', #11, 24.49999999999886000, 0.7853981633979791900 ) ;
#107 = CALENDAR_DATE ( 2014, 6, 8 ) ;
#108 = PERSON_AND_ORGANIZATION ( #247, #121 ) ;
#109 = PERSON_AND_ORGANIZATION ( #247, #121 ) ;
#110 = CALENDAR_DATE ( 2014, 6, 8 ) ;
#111 = FACE_OUTER_BOUND ( 'NONE', #165, .T. ) ;
#112 = FACE_OUTER_BOUND ( 'NONE', #177, .T. ) ;
#113 = FACE_OUTER_BOUND ( 'NONE', #168, .T. ) ;
#114 = ORIENTED_EDGE ( 'NONE', *, *, #25, .T. ) ;
#115 = PERSON_AND_ORGANIZATION ( #247, #121 ) ;
#116 = VECTOR ( 'NONE', #61, 1000.000000000000000 ) ;
#117 =( GEOMETRIC_REPRESENTATION_CONTEXT ( 3 ) GLOBAL_UNCERTAINTY_ASSIGNED_CONTEXT ( ( #274 ) ) GLOBAL_UNIT_ASSIGNED_CONTEXT ( ( #249, #250, #248 ) ) REPRESENTATION_CONTEXT ( 'NONE', 'WORKASPACE' ) );
#118 = FACE_OUTER_BOUND ( 'NONE', #98, .T. ) ;
#119 = LOCAL_TIME ( 12, 53, 46.00000000000000000, #139 ) ;
#120 = EDGE_LOOP ( 'NONE', ( #186, #178, #174, #171 ) ) ;
#121 = ORGANIZATION ( 'UNSPECIFIED', 'UNSPECIFIED', '' ) ;
#122 = PERSON_AND_ORGANIZATION ( #247, #121 ) ;
#123 = FACE_OUTER_BOUND ( 'NONE', #94, .T. ) ;
#124 = CIRCLE ( 'NONE', #16, 24.49999999999974400 ) ;
#125 = LINE ( 'NONE', #87, #196 ) ;
#126 = LINE ( 'NONE', #51, #102 ) ;
#127 = LOCAL_TIME ( 12, 53, 46.00000000000000000, #169 ) ;
#128 = LINE ( 'NONE', #65, #116 ) ;
#129 = FACE_OUTER_BOUND ( 'NONE', #158, .T. ) ;
#130 = CALENDAR_DATE ( 2014, 6, 8 ) ;
#131 = DATE_AND_TIME ( #110, #105 ) ;
#132 = COORDINATED_UNIVERSAL_TIME_OFFSET ( 2, 0, .AHEAD. ) ;
#133 = CYLINDRICAL_SURFACE ( 'NONE', #47, 25.00000000000000000 ) ;
#134 = CONICAL_SURFACE ( 'NONE', #33, 25.00000000000000000, 0.7853981633975385400 ) ;
#135 = CIRCLE ( 'NONE', #24, 24.49999999999886000 ) ;
#136 = VECTOR ( 'NONE', #71, 1000.000000000000100 ) ;
#137 = CALENDAR_DATE ( 2014, 6, 8 ) ;
#138 = DATE_AND_TIME ( #137, #149 ) ;
#139 = COORDINATED_UNIVERSAL_TIME_OFFSET ( 2, 0, .AHEAD. ) ;
#140 = LOCAL_TIME ( 12, 53, 46.00000000000000000, #132 ) ;
#141 = APPROVAL_DATE_TIME ( #138, #45 ) ;
#142 = APPROVAL_PERSON_ORGANIZATION ( #108, #45, #269 ) ;
#143 = FACE_OUTER_BOUND ( 'NONE', #182, .T. ) ;
#144 = COORDINATED_UNIVERSAL_TIME_OFFSET ( 2, 0, .AHEAD. ) ;
#145 = DATE_AND_TIME ( #107, #127 ) ;
#146 = CIRCLE ( 'NONE', #27, 24.49999999999886000 ) ;
#147 = VECTOR ( 'NONE', #58, 1000.000000000000000 ) ;
#148 = CONICAL_SURFACE ( 'NONE', #7, 24.49999999999886000, 0.7853981633979791900 ) ;
#149 = LOCAL_TIME ( 12, 53, 46.00000000000000000, #144 ) ;
#150 = PERSON_AND_ORGANIZATION ( #247, #121 ) ;
#151 = LINE ( 'NONE', #68, #136 ) ;
#152 = ORIENTED_EDGE ( 'NONE', *, *, #22, .F. ) ;
#153 = COORDINATED_UNIVERSAL_TIME_OFFSET ( 2, 0, .AHEAD. ) ;
#154 = FACE_OUTER_BOUND ( 'NONE', #120, .T. ) ;
#155 = CIRCLE ( 'NONE', #41, 24.49999999999974400 ) ;
#156 = ORIENTED_EDGE ( 'NONE', *, *, #21, .T. ) ;
#157 = ORIENTED_EDGE ( 'NONE', *, *, #3, .T. ) ;
#158 = EDGE_LOOP ( 'NONE', ( #152, #167, #179, #157 ) ) ;
#159 = ORIENTED_EDGE ( 'NONE', *, *, #32, .T. ) ;
#160 = ORIENTED_EDGE ( 'NONE', *, *, #17, .F. ) ;
#161 = ORIENTED_EDGE ( 'NONE', *, *, #30, .F. ) ;
#162 = ORIENTED_EDGE ( 'NONE', *, *, #20, .F. ) ;
#163 = LINE ( 'NONE', #79, #147 ) ;
#164 = VECTOR ( 'NONE', #91, 1000.000000000000000 ) ;
#165 = EDGE_LOOP ( 'NONE', ( #159, #195, #200, #201 ) ) ;
#166 = APPROVAL_PERSON_ORGANIZATION ( #150, #28, #258 ) ;
#167 = ORIENTED_EDGE ( 'NONE', *, *, #34, .T. ) ;
#168 = EDGE_LOOP ( 'NONE', ( #181, #114 ) ) ;
#169 = COORDINATED_UNIVERSAL_TIME_OFFSET ( 2, 0, .AHEAD. ) ;
#170 = CLOSED_SHELL ( 'NONE', ( #211, #217, #215, #218, #213, #212, #216, #214 ) ) ;
#171 = ORIENTED_EDGE ( 'NONE', *, *, #31, .F. ) ;
#172 = ORIENTED_EDGE ( 'NONE', *, *, #25, .F. ) ;
#173 = ORIENTED_EDGE ( 'NONE', *, *, #20, .T. ) ;
#174 = ORIENTED_EDGE ( 'NONE', *, *, #32, .F. ) ;
#175 = CALENDAR_DATE ( 2014, 6, 8 ) ;
#176 = DATE_AND_TIME ( #130, #119 ) ;
#177 = EDGE_LOOP ( 'NONE', ( #161, #160, #194, #192 ) ) ;
#178 = ORIENTED_EDGE ( 'NONE', *, *, #30, .T. ) ;
#179 = ORIENTED_EDGE ( 'NONE', *, *, #5, .T. ) ;
#180 = DATE_AND_TIME ( #175, #140 ) ;
#181 = ORIENTED_EDGE ( 'NONE', *, *, #18, .T. ) ;
#182 = EDGE_LOOP ( 'NONE', ( #95, #156 ) ) ;
#183 = ORIENTED_EDGE ( 'NONE', *, *, #26, .F. ) ;
#184 = CIRCLE ( 'NONE', #42, 25.00000000000000000 ) ;
#185 = CIRCLE ( 'NONE', #9, 25.00000000000000000 ) ;
#186 = ORIENTED_EDGE ( 'NONE', *, *, #21, .F. ) ;
#187 = ORIENTED_EDGE ( 'NONE', *, *, #19, .F. ) ;
#188 = PERSON_AND_ORGANIZATION ( #247, #121 ) ;
#189 = ORIENTED_EDGE ( 'NONE', *, *, #3, .F. ) ;
#190 = ORIENTED_EDGE ( 'NONE', *, *, #19, .T. ) ;
#191 = ORIENTED_EDGE ( 'NONE', *, *, #18, .F. ) ;
#192 = ORIENTED_EDGE ( 'NONE', *, *, #34, .F. ) ;
#193 = CIRCLE ( 'NONE', #35, 25.00000000000000000 ) ;
#194 = ORIENTED_EDGE ( 'NONE', *, *, #31, .T. ) ;
#195 = ORIENTED_EDGE ( 'NONE', *, *, #22, .T. ) ;
#196 = VECTOR ( 'NONE', #92, 1000.000000000000000 ) ;
#197 = CYLINDRICAL_SURFACE ( 'NONE', #43, 25.00000000000000000 ) ;
#198 = PERSON_AND_ORGANIZATION ( #247, #121 ) ;
#199 = LINE ( 'NONE', #90, #164 ) ;
#200 = ORIENTED_EDGE ( 'NONE', *, *, #26, .T. ) ;
#201 = ORIENTED_EDGE ( 'NONE', *, *, #5, .F. ) ;
#202 = DIRECTION ( 'NONE',  ( 1.000000000000000000, 0.0000000000000000000, 0.0000000000000000000 ) ) ;
#203 = CARTESIAN_POINT ( 'NONE',  ( -3000.000000000000000, 0.0000000000000000000, 0.0000000000000000000 ) ) ;
#204 = DIRECTION ( 'NONE',  ( 0.0000000000000000000, 0.0000000000000000000, -1.000000000000000000 ) ) ;
#205 = DIRECTION ( 'NONE',  ( 1.000000000000000000, -0.0000000000000000000, -0.0000000000000000000 ) ) ;
#206 = DIRECTION ( 'NONE',  ( 0.0000000000000000000, 0.0000000000000000000, -1.000000000000000000 ) ) ;
#207 = DIRECTION ( 'NONE',  ( 1.000000000000000000, -0.0000000000000000000, -0.0000000000000000000 ) ) ;
#208 = CARTESIAN_POINT ( 'NONE',  ( -2999.500000000000000, 0.0000000000000000000, 0.0000000000000000000 ) ) ;
#209 = CARTESIAN_POINT ( 'NONE',  ( -2999.500000000000000, 0.0000000000000000000, 0.0000000000000000000 ) ) ;
#210 = DIRECTION ( 'NONE',  ( 0.0000000000000000000, 0.0000000000000000000, -1.000000000000000000 ) ) ;
#211 = ADVANCED_FACE ( 'NONE', ( #123 ), #106, .T. ) ;
#212 = ADVANCED_FACE ( 'NONE', ( #113 ), #235, .T. ) ;
#213 = ADVANCED_FACE ( 'NONE', ( #143 ), #243, .F. ) ;
#214 = ADVANCED_FACE ( 'NONE', ( #118 ), #148, .T. ) ;
#215 = ADVANCED_FACE ( 'NONE', ( #111 ), #197, .T. ) ;
#216 = ADVANCED_FACE ( 'NONE', ( #112 ), #101, .T. ) ;
#217 = ADVANCED_FACE ( 'NONE', ( #154 ), #134, .T. ) ;
#218 = ADVANCED_FACE ( 'NONE', ( #129 ), #133, .T. ) ;
#219 = CARTESIAN_POINT ( 'NONE',  ( 0.0000000000000000000, 0.0000000000000000000, 0.0000000000000000000 ) ) ;
#220 = DIRECTION ( 'NONE',  ( 0.0000000000000000000, 0.0000000000000000000, 1.000000000000000000 ) ) ;
#221 = CARTESIAN_POINT ( 'NONE',  ( 3000.000000000000000, 0.0000000000000000000, 24.49999999999886000 ) ) ;
#222 = CARTESIAN_POINT ( 'NONE',  ( 3000.000000000000000, 3.031000827889629400E-015, -24.49999999999886000 ) ) ;
#223 = DIRECTION ( 'NONE',  ( 1.000000000000000000, -0.0000000000000000000, -0.0000000000000000000 ) ) ;
#224 = CARTESIAN_POINT ( 'NONE',  ( -3000.000000000000000, 0.0000000000000000000, 0.0000000000000000000 ) ) ;
#225 = DIRECTION ( 'NONE',  ( 1.000000000000000000, 0.0000000000000000000, 0.0000000000000000000 ) ) ;
#226 = DIRECTION ( 'NONE',  ( 0.0000000000000000000, 0.0000000000000000000, -1.000000000000000000 ) ) ;
#227 = DIRECTION ( 'NONE',  ( 0.0000000000000000000, 0.0000000000000000000, -1.000000000000000000 ) ) ;
#228 = DIRECTION ( 'NONE',  ( 1.000000000000000000, 0.0000000000000000000, 0.0000000000000000000 ) ) ;
#229 = CARTESIAN_POINT ( 'NONE',  ( -3000.000000000000000, 3.031000827889683500E-015, 24.49999999999974400 ) ) ;
#230 = DIRECTION ( 'NONE',  ( -1.000000000000000000, 0.0000000000000000000, 0.0000000000000000000 ) ) ;
#231 = CARTESIAN_POINT ( 'NONE',  ( 3000.000000000000000, 0.0000000000000000000, 0.0000000000000000000 ) ) ;
#232 = DIRECTION ( 'NONE',  ( 0.0000000000000000000, 0.0000000000000000000, -1.000000000000000000 ) ) ;
#233 = DIRECTION ( 'NONE',  ( 1.000000000000000000, 0.0000000000000000000, 0.0000000000000000000 ) ) ;
#234 = CARTESIAN_POINT ( 'NONE',  ( -3000.000000000000000, 0.0000000000000000000, 0.0000000000000000000 ) ) ;
#235 = PLANE ( 'NONE',  #39 ) ;
#236 = DIRECTION ( 'NONE',  ( -1.000000000000000000, 0.0000000000000000000, 0.0000000000000000000 ) ) ;
#237 = DIRECTION ( 'NONE',  ( 0.0000000000000000000, 0.0000000000000000000, 1.000000000000000000 ) ) ;
#238 = CARTESIAN_POINT ( 'NONE',  ( 3000.000000000000000, 0.0000000000000000000, 0.0000000000000000000 ) ) ;
#239 = DIRECTION ( 'NONE',  ( 0.0000000000000000000, 0.0000000000000000000, 1.000000000000000000 ) ) ;
#240 = CARTESIAN_POINT ( 'NONE',  ( -2999.500000000000000, 0.0000000000000000000, -25.00000000000000000 ) ) ;
#241 = CARTESIAN_POINT ( 'NONE',  ( 3000.000000000000000, 0.0000000000000000000, 0.0000000000000000000 ) ) ;
#242 = DIRECTION ( 'NONE',  ( 0.0000000000000000000, 0.0000000000000000000, -1.000000000000000000 ) ) ;
#243 = PLANE ( 'NONE',  #37 ) ;
#244 = CARTESIAN_POINT ( 'NONE',  ( -3000.000000000000000, 0.0000000000000000000, -24.49999999999974400 ) ) ;
#245 = CARTESIAN_POINT ( 'NONE',  ( 2999.499999999999500, 3.061616997868383000E-015, 25.00000000000000000 ) ) ;
#246 = PRODUCT ( 'WRB50', 'WRB50', '', ( #253 ) ) ;
#247 = PERSON ( 'UNSPECIFIED', 'UNSPECIFIED', 'UNSPECIFIED', ('UNSPECIFIED'), ('UNSPECIFIED'), ('UNSPECIFIED') ) ;
#248 =( NAMED_UNIT ( * ) SI_UNIT ( $, .STERADIAN. ) SOLID_ANGLE_UNIT ( ) );
#249 =( LENGTH_UNIT ( ) NAMED_UNIT ( * ) SI_UNIT ( .MILLI., .METRE. ) );
#250 =( NAMED_UNIT ( * ) PLANE_ANGLE_UNIT ( ) SI_UNIT ( $, .RADIAN. ) );
#251 = APPLICATION_CONTEXT ( 'configuration controlled 3d designs of mechanical parts and assemblies' ) ;
#252 = APPLICATION_PROTOCOL_DEFINITION ( 'international standard', 'config_control_design', 1994, #251 ) ;
#253 = MECHANICAL_CONTEXT ( 'NONE', #251, 'mechanical' ) ;
#254 = PERSON_AND_ORGANIZATION_ROLE ( 'design_owner' ) ;
#255 = APPLICATION_CONTEXT ( 'configuration controlled 3d designs of mechanical parts and assemblies' ) ;
#256 = APPLICATION_PROTOCOL_DEFINITION ( 'international standard', 'config_control_design', 1994, #255 ) ;
#257 = APPROVAL_STATUS ( 'not_yet_approved' ) ;
#258 = APPROVAL_ROLE ( '' ) ;
#259 = PERSON_AND_ORGANIZATION_ROLE ( 'creator' ) ;
#260 = DATE_TIME_ROLE ( 'creation_date' ) ;
#261 = APPROVAL_STATUS ( 'not_yet_approved' ) ;
#262 = APPROVAL_ROLE ( '' ) ;
#263 = PERSON_AND_ORGANIZATION_ROLE ( 'creator' ) ;
#264 = PERSON_AND_ORGANIZATION_ROLE ( 'design_supplier' ) ;
#265 = SECURITY_CLASSIFICATION_LEVEL ( 'unclassified' ) ;
#266 = PERSON_AND_ORGANIZATION_ROLE ( 'classification_officer' ) ;
#267 = DATE_TIME_ROLE ( 'classification_date' ) ;
#268 = APPROVAL_STATUS ( 'not_yet_approved' ) ;
#269 = APPROVAL_ROLE ( '' ) ;
#270 = DIRECTION ( 'NONE',  ( 1.000000000000000000, 0.0000000000000000000, 0.0000000000000000000 ) ) ;
#271 = DESIGN_CONTEXT ( 'detailed design', #255, 'design' ) ;
#272 = PRODUCT_DEFINITION_SHAPE ( 'NONE', 'NONE',  #29 ) ;
#273 = MANIFOLD_SOLID_BREP ( 'Chamfer1', #170 ) ;
#274 = UNCERTAINTY_MEASURE_WITH_UNIT (LENGTH_MEASURE( 1.000000000000000100E-005 ), #249, 'distance_accuracy_value', 'NONE');
#275 = ADVANCED_BREP_SHAPE_REPRESENTATION ( 'WRB50', ( #273, #46 ), #117 ) ;
ENDSEC;
END-ISO-10303-21;
