ISO-10303-21;
HEADER;
FILE_DESCRIPTION (( 'STEP AP203' ),
    '1' );
FILE_NAME ('WRA50.STEP',
    '2014-08-06T09:49:25',
    ( 'Ovidiu Buiga' ),
    ( '' ),
    'SwSTEP 2.0',
    'SolidWorks 2010',
    '' );
FILE_SCHEMA (( 'CONFIG_CONTROL_DESIGN' ));
ENDSEC;

DATA;
#1 = PRODUCT_DEFINITION_FORMATION_WITH_SPECIFIED_SOURCE ( 'ANY', '', #236, .NOT_KNOWN. ) ;
#2 = CC_DESIGN_PERSON_AND_ORGANIZATION_ASSIGNMENT ( #90, #217, ( #3 ) ) ;
#3 = SECURITY_CLASSIFICATION ( '', '', #218 ) ;
#4 = CC_DESIGN_APPROVAL ( #9, ( #3 ) ) ;
#5 = CC_DESIGN_SECURITY_CLASSIFICATION ( #3, ( #1 ) ) ;
#6 = CC_DESIGN_PERSON_AND_ORGANIZATION_ASSIGNMENT ( #89, #219, ( #1 ) ) ;
#7 = APPROVAL ( #222, 'UNSPECIFIED' ) ;
#8 = CC_DESIGN_PERSON_AND_ORGANIZATION_ASSIGNMENT ( #68, #220, ( #1 ) ) ;
#9 = APPROVAL ( #215, 'UNSPECIFIED' ) ;
#10 = CC_DESIGN_DATE_AND_TIME_ASSIGNMENT ( #118, #216, ( #3 ) ) ;
#11 = CC_DESIGN_APPROVAL ( #7, ( #1 ) ) ;
#12 = PRODUCT_RELATED_PRODUCT_CATEGORY ( 'detail', '', ( #236 ) ) ;
#13 =( LENGTH_UNIT ( ) NAMED_UNIT ( * ) SI_UNIT ( .MILLI., .METRE. ) );
#14 = CARTESIAN_POINT ( 'NONE',  ( -2999.500000000000000, 0.0000000000000000000, 0.0000000000000000000 ) ) ;
#15 = DIRECTION ( 'NONE',  ( 1.000000000000000000, -0.0000000000000000000, -0.0000000000000000000 ) ) ;
#16 =( NAMED_UNIT ( * ) PLANE_ANGLE_UNIT ( ) SI_UNIT ( $, .RADIAN. ) );
#17 = DIRECTION ( 'NONE',  ( 1.000000000000000000, 0.0000000000000000000, 0.0000000000000000000 ) ) ;
#18 = CARTESIAN_POINT ( 'NONE',  ( 3000.000000000000000, 0.0000000000000000000, 0.0000000000000000000 ) ) ;
#19 = DIRECTION ( 'NONE',  ( 1.000000000000000000, -0.0000000000000000000, -0.0000000000000000000 ) ) ;
#20 = DIRECTION ( 'NONE',  ( 0.0000000000000000000, 0.0000000000000000000, -1.000000000000000000 ) ) ;
#21 = DIRECTION ( 'NONE',  ( 1.000000000000000000, 0.0000000000000000000, 0.0000000000000000000 ) ) ;
#22 = DIRECTION ( 'NONE',  ( 0.0000000000000000000, 0.0000000000000000000, -1.000000000000000000 ) ) ;
#23 = CARTESIAN_POINT ( 'NONE',  ( 3000.000000000000000, 3.000384657910875800E-015, -24.49999999999886000 ) ) ;
#24 = DIRECTION ( 'NONE',  ( 1.000000000000000000, 0.0000000000000000000, 0.0000000000000000000 ) ) ;
#25 = DIRECTION ( 'NONE',  ( 0.7071067811864837300, 8.659560562355714300E-017, 0.7071067811866114100 ) ) ;
#26 =( NAMED_UNIT ( * ) SI_UNIT ( $, .STERADIAN. ) SOLID_ANGLE_UNIT ( ) );
#27 = DIRECTION ( 'NONE',  ( 0.0000000000000000000, 0.0000000000000000000, -1.000000000000000000 ) ) ;
#28 = DIRECTION ( 'NONE',  ( 0.7071067811864837300, 0.0000000000000000000, -0.7071067811866114100 ) ) ;
#29 = CARTESIAN_POINT ( 'NONE',  ( -2999.500000000000000, 0.0000000000000000000, -25.00000000000000000 ) ) ;
#30 = CARTESIAN_POINT ( 'NONE',  ( -3000.000000000000000, 0.0000000000000000000, -25.00000000000000000 ) ) ;
#31 = DIRECTION ( 'NONE',  ( -0.7071067811861722100, 8.659560562359531700E-017, -0.7071067811869229400 ) ) ;
#32 = UNCERTAINTY_MEASURE_WITH_UNIT (LENGTH_MEASURE( 1.000000000000000100E-005 ), #13, 'distance_accuracy_value', 'NONE');
#33 = ADVANCED_BREP_SHAPE_REPRESENTATION ( 'WRA50', ( #34, #267 ), #70 ) ;
#34 = MANIFOLD_SOLID_BREP ( 'Chamfer1', #193 ) ;
#35 = CARTESIAN_POINT ( 'NONE',  ( -3000.000000000000000, 0.0000000000000000000, 0.0000000000000000000 ) ) ;
#36 = DIRECTION ( 'NONE',  ( 1.000000000000000000, 0.0000000000000000000, 0.0000000000000000000 ) ) ;
#37 = CARTESIAN_POINT ( 'NONE',  ( -2999.500000000000000, 0.0000000000000000000, 0.0000000000000000000 ) ) ;
#38 = DIRECTION ( 'NONE',  ( 1.000000000000000000, -0.0000000000000000000, -0.0000000000000000000 ) ) ;
#39 = DIRECTION ( 'NONE',  ( 0.0000000000000000000, 0.0000000000000000000, -1.000000000000000000 ) ) ;
#40 = CARTESIAN_POINT ( 'NONE',  ( -3000.000000000000000, 0.0000000000000000000, 0.0000000000000000000 ) ) ;
#41 = DIRECTION ( 'NONE',  ( 1.000000000000000000, 0.0000000000000000000, 0.0000000000000000000 ) ) ;
#42 = DIRECTION ( 'NONE',  ( 0.0000000000000000000, 0.0000000000000000000, -1.000000000000000000 ) ) ;
#43 = DIRECTION ( 'NONE',  ( 0.0000000000000000000, 0.0000000000000000000, -1.000000000000000000 ) ) ;
#44 = DIRECTION ( 'NONE',  ( 0.0000000000000000000, 0.0000000000000000000, -1.000000000000000000 ) ) ;
#45 = DIRECTION ( 'NONE',  ( 1.000000000000000000, 0.0000000000000000000, 0.0000000000000000000 ) ) ;
#46 = PLANE ( 'NONE',  #243 ) ;
#47 = CARTESIAN_POINT ( 'NONE',  ( -3000.000000000000000, 0.0000000000000000000, 0.0000000000000000000 ) ) ;
#48 = CARTESIAN_POINT ( 'NONE',  ( 3000.000000000000000, 0.0000000000000000000, 0.0000000000000000000 ) ) ;
#49 = VERTEX_POINT ( 'NONE', #60 ) ;
#50 = VERTEX_POINT ( 'NONE', #53 ) ;
#51 = CARTESIAN_POINT ( 'NONE',  ( 3000.000000000000000, 3.031000827889629400E-015, -24.49999999999886000 ) ) ;
#52 = CARTESIAN_POINT ( 'NONE',  ( -3000.000000000000000, 3.031000827889683500E-015, 24.49999999999974400 ) ) ;
#53 = CARTESIAN_POINT ( 'NONE',  ( -2999.500000000000000, 3.061616997868383000E-015, 25.00000000000000000 ) ) ;
#54 = VERTEX_POINT ( 'NONE', #64 ) ;
#55 = VERTEX_POINT ( 'NONE', #52 ) ;
#56 = DIRECTION ( 'NONE',  ( 0.0000000000000000000, 0.0000000000000000000, 1.000000000000000000 ) ) ;
#57 = VERTEX_POINT ( 'NONE', #61 ) ;
#58 = VERTEX_POINT ( 'NONE', #51 ) ;
#59 = CARTESIAN_POINT ( 'NONE',  ( -2999.500000000000000, 0.0000000000000000000, -25.00000000000000000 ) ) ;
#60 = CARTESIAN_POINT ( 'NONE',  ( 2999.499999999999500, 0.0000000000000000000, -25.00000000000000000 ) ) ;
#61 = CARTESIAN_POINT ( 'NONE',  ( 2999.499999999999500, 3.061616997868383000E-015, 25.00000000000000000 ) ) ;
#62 = VERTEX_POINT ( 'NONE', #65 ) ;
#63 = DIRECTION ( 'NONE',  ( -1.000000000000000000, 0.0000000000000000000, 0.0000000000000000000 ) ) ;
#64 = CARTESIAN_POINT ( 'NONE',  ( 3000.000000000000000, 0.0000000000000000000, 24.49999999999886000 ) ) ;
#65 = CARTESIAN_POINT ( 'NONE',  ( -3000.000000000000000, 0.0000000000000000000, -24.49999999999974400 ) ) ;
#66 = VERTEX_POINT ( 'NONE', #59 ) ;
#67 = APPROVAL_DATE_TIME ( #133, #7 ) ;
#68 = PERSON_AND_ORGANIZATION ( #235, #111 ) ;
#69 = COORDINATED_UNIVERSAL_TIME_OFFSET ( 2, 0, .AHEAD. ) ;
#70 =( GEOMETRIC_REPRESENTATION_CONTEXT ( 3 ) GLOBAL_UNCERTAINTY_ASSIGNED_CONTEXT ( ( #32 ) ) GLOBAL_UNIT_ASSIGNED_CONTEXT ( ( #13, #16, #26 ) ) REPRESENTATION_CONTEXT ( 'NONE', 'WORKASPACE' ) );
#71 = CYLINDRICAL_SURFACE ( 'NONE', #244, 25.00000000000000000 ) ;
#72 = FACE_OUTER_BOUND ( 'NONE', #197, .T. ) ;
#73 = DATE_AND_TIME ( #80, #139 ) ;
#74 = FACE_OUTER_BOUND ( 'NONE', #198, .T. ) ;
#75 = APPROVAL_PERSON_ORGANIZATION ( #76, #7, #221 ) ;
#76 = PERSON_AND_ORGANIZATION ( #235, #111 ) ;
#77 = CIRCLE ( 'NONE', #238, 25.00000000000000000 ) ;
#78 = CALENDAR_DATE ( 2014, 6, 8 ) ;
#79 = CONICAL_SURFACE ( 'NONE', #256, 24.49999999999886000, 0.7853981633979791900 ) ;
#80 = CALENDAR_DATE ( 2014, 6, 8 ) ;
#81 = LOCAL_TIME ( 12, 49, 25.00000000000000000, #97 ) ;
#82 = VECTOR ( 'NONE', #17, 1000.000000000000000 ) ;
#83 = VECTOR ( 'NONE', #25, 1000.000000000000100 ) ;
#84 = LOCAL_TIME ( 12, 49, 25.00000000000000000, #106 ) ;
#85 = ORIENTED_EDGE ( 'NONE', *, *, #245, .F. ) ;
#86 = APPROVAL_PERSON_ORGANIZATION ( #127, #270, #232 ) ;
#87 = APPROVAL_DATE_TIME ( #107, #270 ) ;
#88 = VECTOR ( 'NONE', #31, 1000.000000000000000 ) ;
#89 = PERSON_AND_ORGANIZATION ( #235, #111 ) ;
#90 = PERSON_AND_ORGANIZATION ( #235, #111 ) ;
#91 = COORDINATED_UNIVERSAL_TIME_OFFSET ( 2, 0, .AHEAD. ) ;
#92 = CALENDAR_DATE ( 2014, 6, 8 ) ;
#93 = LOCAL_TIME ( 12, 49, 25.00000000000000000, #91 ) ;
#94 = CIRCLE ( 'NONE', #248, 24.49999999999974400 ) ;
#95 = CIRCLE ( 'NONE', #255, 25.00000000000000000 ) ;
#96 = LINE ( 'NONE', #23, #88 ) ;
#97 = COORDINATED_UNIVERSAL_TIME_OFFSET ( 2, 0, .AHEAD. ) ;
#98 = CIRCLE ( 'NONE', #240, 25.00000000000000000 ) ;
#99 = APPROVAL_PERSON_ORGANIZATION ( #103, #9, #214 ) ;
#100 = LOCAL_TIME ( 12, 49, 25.00000000000000000, #135 ) ;
#101 = VECTOR ( 'NONE', #21, 1000.000000000000000 ) ;
#102 = CALENDAR_DATE ( 2014, 6, 8 ) ;
#103 = PERSON_AND_ORGANIZATION ( #235, #111 ) ;
#104 = ORIENTED_EDGE ( 'NONE', *, *, #260, .T. ) ;
#105 = LINE ( 'NONE', #160, #83 ) ;
#106 = COORDINATED_UNIVERSAL_TIME_OFFSET ( 2, 0, .AHEAD. ) ;
#107 = DATE_AND_TIME ( #102, #84 ) ;
#108 = FACE_OUTER_BOUND ( 'NONE', #186, .T. ) ;
#109 = DATE_AND_TIME ( #92, #93 ) ;
#110 = SHAPE_DEFINITION_REPRESENTATION ( #274, #33 ) ;
#111 = ORGANIZATION ( 'UNSPECIFIED', 'UNSPECIFIED', '' ) ;
#112 = CIRCLE ( 'NONE', #266, 24.49999999999886000 ) ;
#113 = FACE_OUTER_BOUND ( 'NONE', #185, .T. ) ;
#114 = FACE_OUTER_BOUND ( 'NONE', #184, .T. ) ;
#115 = LINE ( 'NONE', #158, #120 ) ;
#116 = CYLINDRICAL_SURFACE ( 'NONE', #241, 25.00000000000000000 ) ;
#117 = CONICAL_SURFACE ( 'NONE', #239, 25.00000000000000000, 0.7853981633975385400 ) ;
#118 = DATE_AND_TIME ( #78, #81 ) ;
#119 = APPROVAL_DATE_TIME ( #109, #9 ) ;
#120 = VECTOR ( 'NONE', #152, 1000.000000000000000 ) ;
#121 = CIRCLE ( 'NONE', #259, 24.49999999999974400 ) ;
#122 = FACE_OUTER_BOUND ( 'NONE', #174, .T. ) ;
#123 = CONICAL_SURFACE ( 'NONE', #264, 24.49999999999886000, 0.7853981633979791900 ) ;
#124 = CONICAL_SURFACE ( 'NONE', #237, 25.00000000000000000, 0.7853981633975385400 ) ;
#125 = LINE ( 'NONE', #149, #82 ) ;
#126 = FACE_OUTER_BOUND ( 'NONE', #183, .T. ) ;
#127 = PERSON_AND_ORGANIZATION ( #235, #111 ) ;
#128 = LINE ( 'NONE', #30, #101 ) ;
#129 = FACE_OUTER_BOUND ( 'NONE', #191, .T. ) ;
#130 = LINE ( 'NONE', #29, #132 ) ;
#131 = CIRCLE ( 'NONE', #265, 25.00000000000000000 ) ;
#132 = VECTOR ( 'NONE', #28, 1000.000000000000100 ) ;
#133 = DATE_AND_TIME ( #134, #100 ) ;
#134 = CALENDAR_DATE ( 2014, 6, 8 ) ;
#135 = COORDINATED_UNIVERSAL_TIME_OFFSET ( 2, 0, .AHEAD. ) ;
#136 = PERSON_AND_ORGANIZATION ( #235, #111 ) ;
#137 = PERSON_AND_ORGANIZATION ( #235, #111 ) ;
#138 = CIRCLE ( 'NONE', #257, 24.49999999999886000 ) ;
#139 = LOCAL_TIME ( 12, 49, 25.00000000000000000, #69 ) ;
#140 = PLANE ( 'NONE',  #242 ) ;
#141 = CARTESIAN_POINT ( 'NONE',  ( -2999.500000000000000, 0.0000000000000000000, 0.0000000000000000000 ) ) ;
#142 = DIRECTION ( 'NONE',  ( 0.0000000000000000000, 0.0000000000000000000, -1.000000000000000000 ) ) ;
#143 = DIRECTION ( 'NONE',  ( 1.000000000000000000, 0.0000000000000000000, 0.0000000000000000000 ) ) ;
#144 = DIRECTION ( 'NONE',  ( -1.000000000000000000, 0.0000000000000000000, 0.0000000000000000000 ) ) ;
#145 = CARTESIAN_POINT ( 'NONE',  ( 3000.000000000000000, 0.0000000000000000000, 0.0000000000000000000 ) ) ;
#146 = DIRECTION ( 'NONE',  ( -1.000000000000000000, 0.0000000000000000000, 0.0000000000000000000 ) ) ;
#147 = CARTESIAN_POINT ( 'NONE',  ( -2999.500000000000000, 0.0000000000000000000, 0.0000000000000000000 ) ) ;
#148 = DIRECTION ( 'NONE',  ( 1.000000000000000000, -0.0000000000000000000, -0.0000000000000000000 ) ) ;
#149 = CARTESIAN_POINT ( 'NONE',  ( -3000.000000000000000, 3.061616997868383000E-015, 25.00000000000000000 ) ) ;
#150 = DIRECTION ( 'NONE',  ( -1.000000000000000000, 0.0000000000000000000, 0.0000000000000000000 ) ) ;
#151 = DIRECTION ( 'NONE',  ( 0.0000000000000000000, 0.0000000000000000000, -1.000000000000000000 ) ) ;
#152 = DIRECTION ( 'NONE',  ( -0.7071067811861722100, 0.0000000000000000000, 0.7071067811869229400 ) ) ;
#153 = DIRECTION ( 'NONE',  ( -1.000000000000000000, -0.0000000000000000000, -0.0000000000000000000 ) ) ;
#154 = CARTESIAN_POINT ( 'NONE',  ( -3000.000000000000000, 0.0000000000000000000, 0.0000000000000000000 ) ) ;
#155 = CARTESIAN_POINT ( 'NONE',  ( -3000.000000000000000, 0.0000000000000000000, 0.0000000000000000000 ) ) ;
#156 = DIRECTION ( 'NONE',  ( -1.000000000000000000, -0.0000000000000000000, -0.0000000000000000000 ) ) ;
#157 = DIRECTION ( 'NONE',  ( 0.0000000000000000000, 0.0000000000000000000, -1.000000000000000000 ) ) ;
#158 = CARTESIAN_POINT ( 'NONE',  ( 3000.000000000000000, 0.0000000000000000000, 24.49999999999886000 ) ) ;
#159 = DIRECTION ( 'NONE',  ( 0.0000000000000000000, 0.0000000000000000000, 1.000000000000000000 ) ) ;
#160 = CARTESIAN_POINT ( 'NONE',  ( -2999.500000000000000, 3.061616997868383000E-015, 25.00000000000000000 ) ) ;
#161 = DIRECTION ( 'NONE',  ( 0.0000000000000000000, 0.0000000000000000000, -1.000000000000000000 ) ) ;
#162 = CARTESIAN_POINT ( 'NONE',  ( 2999.499999999999500, 0.0000000000000000000, 0.0000000000000000000 ) ) ;
#163 = CARTESIAN_POINT ( 'NONE',  ( 3000.000000000000000, 0.0000000000000000000, 0.0000000000000000000 ) ) ;
#164 = CARTESIAN_POINT ( 'NONE',  ( 3000.000000000000000, 0.0000000000000000000, 0.0000000000000000000 ) ) ;
#165 = DIRECTION ( 'NONE',  ( 0.0000000000000000000, 0.0000000000000000000, -1.000000000000000000 ) ) ;
#166 = DIRECTION ( 'NONE',  ( 0.0000000000000000000, 0.0000000000000000000, -1.000000000000000000 ) ) ;
#167 = DIRECTION ( 'NONE',  ( 1.000000000000000000, 0.0000000000000000000, 0.0000000000000000000 ) ) ;
#168 = CARTESIAN_POINT ( 'NONE',  ( 2999.499999999999500, 0.0000000000000000000, 0.0000000000000000000 ) ) ;
#169 = DIRECTION ( 'NONE',  ( 0.0000000000000000000, 0.0000000000000000000, -1.000000000000000000 ) ) ;
#170 = ORIENTED_EDGE ( 'NONE', *, *, #250, .F. ) ;
#171 = ORIENTED_EDGE ( 'NONE', *, *, #251, .T. ) ;
#172 = ORIENTED_EDGE ( 'NONE', *, *, #253, .F. ) ;
#173 = ORIENTED_EDGE ( 'NONE', *, *, #246, .F. ) ;
#174 = EDGE_LOOP ( 'NONE', ( #172, #202, #199, #200 ) ) ;
#175 = ORIENTED_EDGE ( 'NONE', *, *, #254, .F. ) ;
#176 = ORIENTED_EDGE ( 'NONE', *, *, #249, .F. ) ;
#177 = ORIENTED_EDGE ( 'NONE', *, *, #245, .T. ) ;
#178 = ORIENTED_EDGE ( 'NONE', *, *, #262, .T. ) ;
#179 = ORIENTED_EDGE ( 'NONE', *, *, #250, .T. ) ;
#180 = ORIENTED_EDGE ( 'NONE', *, *, #258, .F. ) ;
#181 = ORIENTED_EDGE ( 'NONE', *, *, #252, .F. ) ;
#182 = ORIENTED_EDGE ( 'NONE', *, *, #247, .F. ) ;
#183 = EDGE_LOOP ( 'NONE', ( #192, #85, #171, #173 ) ) ;
#184 = EDGE_LOOP ( 'NONE', ( #177, #104 ) ) ;
#185 = EDGE_LOOP ( 'NONE', ( #195, #179 ) ) ;
#186 = EDGE_LOOP ( 'NONE', ( #188, #189, #190, #201 ) ) ;
#187 = ORIENTED_EDGE ( 'NONE', *, *, #262, .F. ) ;
#188 = ORIENTED_EDGE ( 'NONE', *, *, #258, .T. ) ;
#189 = ORIENTED_EDGE ( 'NONE', *, *, #253, .T. ) ;
#190 = ORIENTED_EDGE ( 'NONE', *, *, #247, .T. ) ;
#191 = EDGE_LOOP ( 'NONE', ( #181, #176, #178, #175 ) ) ;
#192 = ORIENTED_EDGE ( 'NONE', *, *, #261, .F. ) ;
#193 = CLOSED_SHELL ( 'NONE', ( #206, #210, #209, #207, #205, #211, #208, #212 ) ) ;
#194 = ORIENTED_EDGE ( 'NONE', *, *, #251, .F. ) ;
#195 = ORIENTED_EDGE ( 'NONE', *, *, #249, .T. ) ;
#196 = ORIENTED_EDGE ( 'NONE', *, *, #260, .F. ) ;
#197 = EDGE_LOOP ( 'NONE', ( #196, #203, #182, #194 ) ) ;
#198 = EDGE_LOOP ( 'NONE', ( #170, #204, #180, #187 ) ) ;
#199 = ORIENTED_EDGE ( 'NONE', *, *, #263, .T. ) ;
#200 = ORIENTED_EDGE ( 'NONE', *, *, #246, .T. ) ;
#201 = ORIENTED_EDGE ( 'NONE', *, *, #263, .F. ) ;
#202 = ORIENTED_EDGE ( 'NONE', *, *, #254, .T. ) ;
#203 = ORIENTED_EDGE ( 'NONE', *, *, #261, .T. ) ;
#204 = ORIENTED_EDGE ( 'NONE', *, *, #252, .T. ) ;
#205 = ADVANCED_FACE ( 'NONE', ( #113 ), #46, .F. ) ;
#206 = ADVANCED_FACE ( 'NONE', ( #72 ), #79, .T. ) ;
#207 = ADVANCED_FACE ( 'NONE', ( #122 ), #71, .T. ) ;
#208 = ADVANCED_FACE ( 'NONE', ( #129 ), #117, .T. ) ;
#209 = ADVANCED_FACE ( 'NONE', ( #108 ), #116, .T. ) ;
#210 = ADVANCED_FACE ( 'NONE', ( #74 ), #124, .T. ) ;
#211 = ADVANCED_FACE ( 'NONE', ( #114 ), #140, .T. ) ;
#212 = ADVANCED_FACE ( 'NONE', ( #126 ), #123, .T. ) ;
#213 = CARTESIAN_POINT ( 'NONE',  ( 0.0000000000000000000, 0.0000000000000000000, 0.0000000000000000000 ) ) ;
#214 = APPROVAL_ROLE ( '' ) ;
#215 = APPROVAL_STATUS ( 'not_yet_approved' ) ;
#216 = DATE_TIME_ROLE ( 'classification_date' ) ;
#217 = PERSON_AND_ORGANIZATION_ROLE ( 'classification_officer' ) ;
#218 = SECURITY_CLASSIFICATION_LEVEL ( 'unclassified' ) ;
#219 = PERSON_AND_ORGANIZATION_ROLE ( 'design_supplier' ) ;
#220 = PERSON_AND_ORGANIZATION_ROLE ( 'creator' ) ;
#221 = APPROVAL_ROLE ( '' ) ;
#222 = APPROVAL_STATUS ( 'not_yet_approved' ) ;
#223 = DATE_TIME_ROLE ( 'creation_date' ) ;
#224 = PERSON_AND_ORGANIZATION_ROLE ( 'creator' ) ;
#225 = APPROVAL_STATUS ( 'not_yet_approved' ) ;
#226 = APPLICATION_PROTOCOL_DEFINITION ( 'international standard', 'config_control_design', 1994, #227 ) ;
#227 = APPLICATION_CONTEXT ( 'configuration controlled 3d designs of mechanical parts and assemblies' ) ;
#228 = PERSON_AND_ORGANIZATION_ROLE ( 'design_owner' ) ;
#229 = MECHANICAL_CONTEXT ( 'NONE', #234, 'mechanical' ) ;
#230 = DIRECTION ( 'NONE',  ( 1.000000000000000000, 0.0000000000000000000, 0.0000000000000000000 ) ) ;
#231 = DIRECTION ( 'NONE',  ( 0.0000000000000000000, 0.0000000000000000000, 1.000000000000000000 ) ) ;
#232 = APPROVAL_ROLE ( '' ) ;
#233 = APPLICATION_PROTOCOL_DEFINITION ( 'international standard', 'config_control_design', 1994, #234 ) ;
#234 = APPLICATION_CONTEXT ( 'configuration controlled 3d designs of mechanical parts and assemblies' ) ;
#235 = PERSON ( 'UNSPECIFIED', 'UNSPECIFIED', 'UNSPECIFIED', ('UNSPECIFIED'), ('UNSPECIFIED'), ('UNSPECIFIED') ) ;
#236 = PRODUCT ( 'WRA50', 'WRA50', '', ( #229 ) ) ;
#237 = AXIS2_PLACEMENT_3D ( 'NONE', #141, #148, #169 ) ;
#238 = AXIS2_PLACEMENT_3D ( 'NONE', #168, #146, #165 ) ;
#239 = AXIS2_PLACEMENT_3D ( 'NONE', #37, #38, #42 ) ;
#240 = AXIS2_PLACEMENT_3D ( 'NONE', #162, #150, #142 ) ;
#241 = AXIS2_PLACEMENT_3D ( 'NONE', #35, #36, #39 ) ;
#242 = AXIS2_PLACEMENT_3D ( 'NONE', #163, #167, #161 ) ;
#243 = AXIS2_PLACEMENT_3D ( 'NONE', #47, #45, #44 ) ;
#244 = AXIS2_PLACEMENT_3D ( 'NONE', #40, #41, #43 ) ;
#245 = EDGE_CURVE ( 'NONE', #54, #58, #138, .T. ) ;
#246 = EDGE_CURVE ( 'NONE', #49, #57, #77, .T. ) ;
#247 = EDGE_CURVE ( 'NONE', #57, #49, #98, .T. ) ;
#248 = AXIS2_PLACEMENT_3D ( 'NONE', #155, #153, #166 ) ;
#249 = EDGE_CURVE ( 'NONE', #62, #55, #121, .T. ) ;
#250 = EDGE_CURVE ( 'NONE', #55, #62, #94, .T. ) ;
#251 = EDGE_CURVE ( 'NONE', #54, #57, #115, .T. ) ;
#252 = EDGE_CURVE ( 'NONE', #55, #50, #105, .T. ) ;
#253 = EDGE_CURVE ( 'NONE', #50, #57, #125, .T. ) ;
#254 = EDGE_CURVE ( 'NONE', #50, #66, #95, .T. ) ;
#255 = AXIS2_PLACEMENT_3D ( 'NONE', #14, #19, #22 ) ;
#256 = AXIS2_PLACEMENT_3D ( 'NONE', #48, #63, #56 ) ;
#257 = AXIS2_PLACEMENT_3D ( 'NONE', #164, #143, #151 ) ;
#258 = EDGE_CURVE ( 'NONE', #66, #50, #131, .T. ) ;
#259 = AXIS2_PLACEMENT_3D ( 'NONE', #154, #156, #157 ) ;
#260 = EDGE_CURVE ( 'NONE', #58, #54, #112, .T. ) ;
#261 = EDGE_CURVE ( 'NONE', #58, #49, #96, .T. ) ;
#262 = EDGE_CURVE ( 'NONE', #62, #66, #130, .T. ) ;
#263 = EDGE_CURVE ( 'NONE', #66, #49, #128, .T. ) ;
#264 = AXIS2_PLACEMENT_3D ( 'NONE', #145, #144, #159 ) ;
#265 = AXIS2_PLACEMENT_3D ( 'NONE', #147, #15, #20 ) ;
#266 = AXIS2_PLACEMENT_3D ( 'NONE', #18, #24, #27 ) ;
#267 = AXIS2_PLACEMENT_3D ( 'NONE', #213, #231, #230 ) ;
#268 = CC_DESIGN_PERSON_AND_ORGANIZATION_ASSIGNMENT ( #137, #228, ( #236 ) ) ;
#269 = PRODUCT_DEFINITION ( 'UNKNOWN', '', #1, #275 ) ;
#270 = APPROVAL ( #225, 'UNSPECIFIED' ) ;
#271 = CC_DESIGN_APPROVAL ( #270, ( #269 ) ) ;
#272 = CC_DESIGN_PERSON_AND_ORGANIZATION_ASSIGNMENT ( #136, #224, ( #269 ) ) ;
#273 = CC_DESIGN_DATE_AND_TIME_ASSIGNMENT ( #73, #223, ( #269 ) ) ;
#274 = PRODUCT_DEFINITION_SHAPE ( 'NONE', 'NONE',  #269 ) ;
#275 = DESIGN_CONTEXT ( 'detailed design', #227, 'design' ) ;
ENDSEC;
END-ISO-10303-21;
