ISO-10303-21;
HEADER;
FILE_DESCRIPTION (( 'STEP AP203' ),
    '1' );
FILE_NAME ('WRB40.STEP',
    '2014-08-06T09:54:06',
    ( 'Ovidiu Buiga' ),
    ( '' ),
    'SwSTEP 2.0',
    'SolidWorks 2010',
    '' );
FILE_SCHEMA (( 'CONFIG_CONTROL_DESIGN' ));
ENDSEC;

DATA;
#1 = ADVANCED_FACE ( 'NONE', ( #113 ), #108, .T. ) ;
#2 = ADVANCED_FACE ( 'NONE', ( #146 ), #275, .F. ) ;
#3 = ADVANCED_FACE ( 'NONE', ( #193 ), #199, .T. ) ;
#4 = ADVANCED_FACE ( 'NONE', ( #174 ), #198, .T. ) ;
#5 = ADVANCED_FACE ( 'NONE', ( #112 ), #191, .T. ) ;
#6 = ADVANCED_FACE ( 'NONE', ( #128 ), #142, .T. ) ;
#7 = ADVANCED_FACE ( 'NONE', ( #180 ), #268, .T. ) ;
#8 = ADVANCED_FACE ( 'NONE', ( #197 ), #98, .T. ) ;
#9 = SECURITY_CLASSIFICATION ( '', '', #223 ) ;
#10 = CC_DESIGN_SECURITY_CLASSIFICATION ( #9, ( #21 ) ) ;
#11 = EDGE_CURVE ( 'NONE', #269, #252, #190, .T. ) ;
#12 = EDGE_CURVE ( 'NONE', #272, #267, #97, .T. ) ;
#13 = CC_DESIGN_PERSON_AND_ORGANIZATION_ASSIGNMENT ( #129, #222, ( #21 ) ) ;
#14 = AXIS2_PLACEMENT_3D ( 'NONE', #235, #241, #242 ) ;
#15 = CC_DESIGN_PERSON_AND_ORGANIZATION_ASSIGNMENT ( #127, #221, ( #21 ) ) ;
#16 = CC_DESIGN_APPROVAL ( #20, ( #21 ) ) ;
#17 = PRODUCT_RELATED_PRODUCT_CATEGORY ( 'detail', '', ( #249 ) ) ;
#18 = AXIS2_PLACEMENT_3D ( 'NONE', #254, #239, #238 ) ;
#19 = AXIS2_PLACEMENT_3D ( 'NONE', #236, #234, #233 ) ;
#20 = APPROVAL ( #219, 'UNSPECIFIED' ) ;
#21 = PRODUCT_DEFINITION_FORMATION_WITH_SPECIFIED_SOURCE ( 'ANY', '', #249, .NOT_KNOWN. ) ;
#22 = CC_DESIGN_DATE_AND_TIME_ASSIGNMENT ( #159, #218, ( #26 ) ) ;
#23 = CC_DESIGN_PERSON_AND_ORGANIZATION_ASSIGNMENT ( #153, #217, ( #26 ) ) ;
#24 = CC_DESIGN_APPROVAL ( #25, ( #26 ) ) ;
#25 = APPROVAL ( #215, 'UNSPECIFIED' ) ;
#26 = PRODUCT_DEFINITION ( 'UNKNOWN', '', #21, #206 ) ;
#27 = CC_DESIGN_PERSON_AND_ORGANIZATION_ASSIGNMENT ( #177, #212, ( #249 ) ) ;
#28 = CC_DESIGN_APPROVAL ( #40, ( #9 ) ) ;
#29 = AXIS2_PLACEMENT_3D ( 'NONE', #95, #94, #93 ) ;
#30 = AXIS2_PLACEMENT_3D ( 'NONE', #64, #66, #65 ) ;
#31 = CC_DESIGN_PERSON_AND_ORGANIZATION_ASSIGNMENT ( #131, #224, ( #9 ) ) ;
#32 = AXIS2_PLACEMENT_3D ( 'NONE', #73, #71, #72 ) ;
#33 = AXIS2_PLACEMENT_3D ( 'NONE', #81, #78, #82 ) ;
#34 = AXIS2_PLACEMENT_3D ( 'NONE', #74, #84, #85 ) ;
#35 = AXIS2_PLACEMENT_3D ( 'NONE', #232, #240, #243 ) ;
#36 = AXIS2_PLACEMENT_3D ( 'NONE', #271, #253, #257 ) ;
#37 = AXIS2_PLACEMENT_3D ( 'NONE', #270, #251, #263 ) ;
#38 = EDGE_CURVE ( 'NONE', #258, #261, #116, .T. ) ;
#39 = AXIS2_PLACEMENT_3D ( 'NONE', #259, #262, #256 ) ;
#40 = APPROVAL ( #226, 'UNSPECIFIED' ) ;
#41 = AXIS2_PLACEMENT_3D ( 'NONE', #244, #231, #230 ) ;
#42 = AXIS2_PLACEMENT_3D ( 'NONE', #76, #87, #88 ) ;
#43 = AXIS2_PLACEMENT_3D ( 'NONE', #266, #265, #250 ) ;
#44 = AXIS2_PLACEMENT_3D ( 'NONE', #264, #255, #274 ) ;
#45 = EDGE_CURVE ( 'NONE', #261, #269, #107, .T. ) ;
#46 = EDGE_CURVE ( 'NONE', #258, #252, #139, .T. ) ;
#47 = EDGE_CURVE ( 'NONE', #260, #273, #184, .T. ) ;
#48 = EDGE_CURVE ( 'NONE', #267, #273, #104, .T. ) ;
#49 = EDGE_CURVE ( 'NONE', #252, #269, #170, .T. ) ;
#50 = EDGE_CURVE ( 'NONE', #261, #258, #150, .T. ) ;
#51 = EDGE_CURVE ( 'NONE', #267, #272, #202, .T. ) ;
#52 = EDGE_CURVE ( 'NONE', #272, #260, #185, .T. ) ;
#53 = EDGE_CURVE ( 'NONE', #273, #252, #169, .T. ) ;
#54 = EDGE_CURVE ( 'NONE', #273, #260, #164, .T. ) ;
#55 = EDGE_CURVE ( 'NONE', #260, #269, #171, .T. ) ;
#56 = CC_DESIGN_DATE_AND_TIME_ASSIGNMENT ( #135, #225, ( #9 ) ) ;
#57 = AXIS2_PLACEMENT_3D ( 'NONE', #247, #246, #245 ) ;
#58 = CARTESIAN_POINT ( 'NONE',  ( -3000.000000000000000, 2.418677428316013300E-015, 19.49999999999985100 ) ) ;
#59 = CARTESIAN_POINT ( 'NONE',  ( -3000.000000000000000, 0.0000000000000000000, -19.49999999999985100 ) ) ;
#60 = CARTESIAN_POINT ( 'NONE',  ( -3000.000000000000000, 0.0000000000000000000, -20.00000000000000000 ) ) ;
#61 = DIRECTION ( 'NONE',  ( 1.000000000000000000, 0.0000000000000000000, 0.0000000000000000000 ) ) ;
#62 = CARTESIAN_POINT ( 'NONE',  ( -2999.500000000000000, 0.0000000000000000000, -20.00000000000000000 ) ) ;
#63 = DIRECTION ( 'NONE',  ( 1.000000000000000000, 0.0000000000000000000, 0.0000000000000000000 ) ) ;
#64 = CARTESIAN_POINT ( 'NONE',  ( -2999.500000000000000, 0.0000000000000000000, 0.0000000000000000000 ) ) ;
#65 = DIRECTION ( 'NONE',  ( 0.0000000000000000000, 0.0000000000000000000, -1.000000000000000000 ) ) ;
#66 = DIRECTION ( 'NONE',  ( 1.000000000000000000, -0.0000000000000000000, -0.0000000000000000000 ) ) ;
#67 = CARTESIAN_POINT ( 'NONE',  ( 2999.499999999999500, 2.449293598294706500E-015, 20.00000000000000000 ) ) ;
#68 = CARTESIAN_POINT ( 'NONE',  ( 3000.000000000000000, 0.0000000000000000000, 19.49999999999985100 ) ) ;
#69 = CARTESIAN_POINT ( 'NONE',  ( 3000.000000000000000, 2.418677428316013300E-015, -19.49999999999985100 ) ) ;
#70 = CARTESIAN_POINT ( 'NONE',  ( -2999.500000000000000, 2.449293598294706500E-015, 20.00000000000000000 ) ) ;
#71 = DIRECTION ( 'NONE',  ( -1.000000000000000000, -0.0000000000000000000, -0.0000000000000000000 ) ) ;
#72 = DIRECTION ( 'NONE',  ( 0.0000000000000000000, 0.0000000000000000000, -1.000000000000000000 ) ) ;
#73 = CARTESIAN_POINT ( 'NONE',  ( -3000.000000000000000, 0.0000000000000000000, 0.0000000000000000000 ) ) ;
#74 = CARTESIAN_POINT ( 'NONE',  ( 2999.499999999999500, 0.0000000000000000000, 0.0000000000000000000 ) ) ;
#75 = DIRECTION ( 'NONE',  ( 0.7071067811865597900, 8.659560562354782500E-017, 0.7071067811865352500 ) ) ;
#76 = CARTESIAN_POINT ( 'NONE',  ( 3000.000000000000000, 0.0000000000000000000, 0.0000000000000000000 ) ) ;
#77 = DIRECTION ( 'NONE',  ( -0.7071067811868738700, 0.0000000000000000000, 0.7071067811862212800 ) ) ;
#78 = DIRECTION ( 'NONE',  ( 1.000000000000000000, -0.0000000000000000000, -0.0000000000000000000 ) ) ;
#79 = DIRECTION ( 'NONE',  ( 0.7071067811865597900, 0.0000000000000000000, -0.7071067811865352500 ) ) ;
#80 =( LENGTH_UNIT ( ) NAMED_UNIT ( * ) SI_UNIT ( .MILLI., .METRE. ) );
#81 = CARTESIAN_POINT ( 'NONE',  ( -2999.500000000000000, 0.0000000000000000000, 0.0000000000000000000 ) ) ;
#82 = DIRECTION ( 'NONE',  ( 0.0000000000000000000, 0.0000000000000000000, -1.000000000000000000 ) ) ;
#83 = CARTESIAN_POINT ( 'NONE',  ( -2999.500000000000000, 0.0000000000000000000, -20.00000000000000000 ) ) ;
#84 = DIRECTION ( 'NONE',  ( -1.000000000000000000, 0.0000000000000000000, 0.0000000000000000000 ) ) ;
#85 = DIRECTION ( 'NONE',  ( 0.0000000000000000000, 0.0000000000000000000, -1.000000000000000000 ) ) ;
#86 = CARTESIAN_POINT ( 'NONE',  ( -3000.000000000000000, 2.449293598294706500E-015, 20.00000000000000000 ) ) ;
#87 = DIRECTION ( 'NONE',  ( 1.000000000000000000, 0.0000000000000000000, 0.0000000000000000000 ) ) ;
#88 = DIRECTION ( 'NONE',  ( 0.0000000000000000000, 0.0000000000000000000, -1.000000000000000000 ) ) ;
#89 =( NAMED_UNIT ( * ) PLANE_ANGLE_UNIT ( ) SI_UNIT ( $, .RADIAN. ) );
#90 = CARTESIAN_POINT ( 'NONE',  ( -2999.500000000000000, 2.449293598294706500E-015, 20.00000000000000000 ) ) ;
#91 = CARTESIAN_POINT ( 'NONE',  ( 2999.499999999999500, 0.0000000000000000000, -20.00000000000000000 ) ) ;
#92 =( NAMED_UNIT ( * ) SI_UNIT ( $, .STERADIAN. ) SOLID_ANGLE_UNIT ( ) );
#93 = DIRECTION ( 'NONE',  ( 1.000000000000000000, 0.0000000000000000000, 0.0000000000000000000 ) ) ;
#94 = DIRECTION ( 'NONE',  ( 0.0000000000000000000, 0.0000000000000000000, 1.000000000000000000 ) ) ;
#95 = CARTESIAN_POINT ( 'NONE',  ( 0.0000000000000000000, 0.0000000000000000000, 0.0000000000000000000 ) ) ;
#96 = EDGE_LOOP ( 'NONE', ( #172, #181, #154, #188 ) ) ;
#97 = CIRCLE ( 'NONE', #57, 19.49999999999985100 ) ;
#98 = CYLINDRICAL_SURFACE ( 'NONE', #14, 20.00000000000000000 ) ;
#99 = ORIENTED_EDGE ( 'NONE', *, *, #55, .F. ) ;
#100 = ORIENTED_EDGE ( 'NONE', *, *, #38, .F. ) ;
#101 = ORIENTED_EDGE ( 'NONE', *, *, #46, .T. ) ;
#102 = VECTOR ( 'NONE', #79, 1000.000000000000000 ) ;
#103 = ORIENTED_EDGE ( 'NONE', *, *, #38, .T. ) ;
#104 = LINE ( 'NONE', #70, #145 ) ;
#105 = VECTOR ( 'NONE', #77, 1000.000000000000000 ) ;
#106 = EDGE_LOOP ( 'NONE', ( #196, #100, #101, #176 ) ) ;
#107 = LINE ( 'NONE', #237, #203 ) ;
#108 = CYLINDRICAL_SURFACE ( 'NONE', #44, 20.00000000000000000 ) ;
#109 = ORIENTED_EDGE ( 'NONE', *, *, #48, .T. ) ;
#110 = ORIENTED_EDGE ( 'NONE', *, *, #45, .T. ) ;
#111 = EDGE_LOOP ( 'NONE', ( #115, #130, #126, #99 ) ) ;
#112 = FACE_OUTER_BOUND ( 'NONE', #168, .T. ) ;
#113 = FACE_OUTER_BOUND ( 'NONE', #96, .T. ) ;
#114 = CLOSED_SHELL ( 'NONE', ( #6, #5, #8, #1, #2, #7, #4, #3 ) ) ;
#115 = ORIENTED_EDGE ( 'NONE', *, *, #47, .T. ) ;
#116 = CIRCLE ( 'NONE', #41, 19.49999999999985100 ) ;
#117 = ORIENTED_EDGE ( 'NONE', *, *, #50, .F. ) ;
#118 = EDGE_LOOP ( 'NONE', ( #192, #187, #151, #179 ) ) ;
#119 = ORGANIZATION ( 'UNSPECIFIED', 'UNSPECIFIED', '' ) ;
#120 = APPROVAL_PERSON_ORGANIZATION ( #163, #20, #220 ) ;
#121 = COORDINATED_UNIVERSAL_TIME_OFFSET ( 2, 0, .AHEAD. ) ;
#122 = LOCAL_TIME ( 12, 54, 6.000000000000000000, #121 ) ;
#123 = CALENDAR_DATE ( 2014, 6, 8 ) ;
#124 = DATE_AND_TIME ( #123, #122 ) ;
#125 = APPROVAL_DATE_TIME ( #124, #20 ) ;
#126 = ORIENTED_EDGE ( 'NONE', *, *, #49, .T. ) ;
#127 = PERSON_AND_ORGANIZATION ( #248, #119 ) ;
#128 = FACE_OUTER_BOUND ( 'NONE', #178, .T. ) ;
#129 = PERSON_AND_ORGANIZATION ( #248, #119 ) ;
#130 = ORIENTED_EDGE ( 'NONE', *, *, #53, .T. ) ;
#131 = PERSON_AND_ORGANIZATION ( #248, #119 ) ;
#132 = COORDINATED_UNIVERSAL_TIME_OFFSET ( 2, 0, .AHEAD. ) ;
#133 = LOCAL_TIME ( 12, 54, 6.000000000000000000, #132 ) ;
#134 = CALENDAR_DATE ( 2014, 6, 8 ) ;
#135 = DATE_AND_TIME ( #134, #133 ) ;
#136 = PERSON_AND_ORGANIZATION ( #248, #119 ) ;
#137 = APPROVAL_PERSON_ORGANIZATION ( #136, #40, #227 ) ;
#138 = COORDINATED_UNIVERSAL_TIME_OFFSET ( 2, 0, .AHEAD. ) ;
#139 = LINE ( 'NONE', #229, #105 ) ;
#140 = LOCAL_TIME ( 12, 54, 6.000000000000000000, #138 ) ;
#141 = CALENDAR_DATE ( 2014, 6, 8 ) ;
#142 = CONICAL_SURFACE ( 'NONE', #35, 19.49999999999985100, 0.7853981633969869800 ) ;
#143 = SHAPE_DEFINITION_REPRESENTATION ( #205, #208 ) ;
#144 = DATE_AND_TIME ( #141, #140 ) ;
#145 = VECTOR ( 'NONE', #75, 1000.000000000000000 ) ;
#146 = FACE_OUTER_BOUND ( 'NONE', #152, .T. ) ;
#147 = VECTOR ( 'NONE', #61, 1000.000000000000000 ) ;
#148 = EDGE_LOOP ( 'NONE', ( #103, #175 ) ) ;
#149 =( GEOMETRIC_REPRESENTATION_CONTEXT ( 3 ) GLOBAL_UNCERTAINTY_ASSIGNED_CONTEXT ( ( #207 ) ) GLOBAL_UNIT_ASSIGNED_CONTEXT ( ( #80, #89, #92 ) ) REPRESENTATION_CONTEXT ( 'NONE', 'WORKASPACE' ) );
#150 = CIRCLE ( 'NONE', #42, 19.49999999999985100 ) ;
#151 = ORIENTED_EDGE ( 'NONE', *, *, #52, .T. ) ;
#152 = EDGE_LOOP ( 'NONE', ( #183, #162 ) ) ;
#153 = PERSON_AND_ORGANIZATION ( #248, #119 ) ;
#154 = ORIENTED_EDGE ( 'NONE', *, *, #55, .T. ) ;
#155 = APPROVAL_PERSON_ORGANIZATION ( #157, #25, #216 ) ;
#156 = APPROVAL_DATE_TIME ( #161, #25 ) ;
#157 = PERSON_AND_ORGANIZATION ( #248, #119 ) ;
#158 = COORDINATED_UNIVERSAL_TIME_OFFSET ( 2, 0, .AHEAD. ) ;
#159 = DATE_AND_TIME ( #160, #186 ) ;
#160 = CALENDAR_DATE ( 2014, 6, 8 ) ;
#161 = DATE_AND_TIME ( #189, #166 ) ;
#162 = ORIENTED_EDGE ( 'NONE', *, *, #51, .T. ) ;
#163 = PERSON_AND_ORGANIZATION ( #248, #119 ) ;
#164 = CIRCLE ( 'NONE', #30, 20.00000000000000000 ) ;
#165 = COORDINATED_UNIVERSAL_TIME_OFFSET ( 2, 0, .AHEAD. ) ;
#166 = LOCAL_TIME ( 12, 54, 6.000000000000000000, #165 ) ;
#167 = APPROVAL_DATE_TIME ( #144, #40 ) ;
#168 = EDGE_LOOP ( 'NONE', ( #201, #109, #173, #182 ) ) ;
#169 = LINE ( 'NONE', #86, #194 ) ;
#170 = CIRCLE ( 'NONE', #34, 20.00000000000000000 ) ;
#171 = LINE ( 'NONE', #60, #147 ) ;
#172 = ORIENTED_EDGE ( 'NONE', *, *, #53, .F. ) ;
#173 = ORIENTED_EDGE ( 'NONE', *, *, #47, .F. ) ;
#174 = FACE_OUTER_BOUND ( 'NONE', #118, .T. ) ;
#175 = ORIENTED_EDGE ( 'NONE', *, *, #50, .T. ) ;
#176 = ORIENTED_EDGE ( 'NONE', *, *, #11, .F. ) ;
#177 = PERSON_AND_ORGANIZATION ( #248, #119 ) ;
#178 = EDGE_LOOP ( 'NONE', ( #117, #110, #195, #200 ) ) ;
#179 = ORIENTED_EDGE ( 'NONE', *, *, #54, .F. ) ;
#180 = FACE_OUTER_BOUND ( 'NONE', #148, .T. ) ;
#181 = ORIENTED_EDGE ( 'NONE', *, *, #54, .T. ) ;
#182 = ORIENTED_EDGE ( 'NONE', *, *, #52, .F. ) ;
#183 = ORIENTED_EDGE ( 'NONE', *, *, #12, .T. ) ;
#184 = CIRCLE ( 'NONE', #33, 20.00000000000000000 ) ;
#185 = LINE ( 'NONE', #83, #102 ) ;
#186 = LOCAL_TIME ( 12, 54, 6.000000000000000000, #158 ) ;
#187 = ORIENTED_EDGE ( 'NONE', *, *, #12, .F. ) ;
#188 = ORIENTED_EDGE ( 'NONE', *, *, #11, .T. ) ;
#189 = CALENDAR_DATE ( 2014, 6, 8 ) ;
#190 = CIRCLE ( 'NONE', #19, 20.00000000000000000 ) ;
#191 = CONICAL_SURFACE ( 'NONE', #36, 20.00000000000000000, 0.7853981633974309600 ) ;
#192 = ORIENTED_EDGE ( 'NONE', *, *, #48, .F. ) ;
#193 = FACE_OUTER_BOUND ( 'NONE', #106, .T. ) ;
#194 = VECTOR ( 'NONE', #63, 1000.000000000000000 ) ;
#195 = ORIENTED_EDGE ( 'NONE', *, *, #49, .F. ) ;
#196 = ORIENTED_EDGE ( 'NONE', *, *, #45, .F. ) ;
#197 = FACE_OUTER_BOUND ( 'NONE', #111, .T. ) ;
#198 = CONICAL_SURFACE ( 'NONE', #37, 20.00000000000000000, 0.7853981633974309600 ) ;
#199 = CONICAL_SURFACE ( 'NONE', #39, 19.49999999999985100, 0.7853981633969869800 ) ;
#200 = ORIENTED_EDGE ( 'NONE', *, *, #46, .F. ) ;
#201 = ORIENTED_EDGE ( 'NONE', *, *, #51, .F. ) ;
#202 = CIRCLE ( 'NONE', #32, 19.49999999999985100 ) ;
#203 = VECTOR ( 'NONE', #228, 1000.000000000000000 ) ;
#204 = MANIFOLD_SOLID_BREP ( 'Chamfer1', #114 ) ;
#205 = PRODUCT_DEFINITION_SHAPE ( 'NONE', 'NONE',  #26 ) ;
#206 = DESIGN_CONTEXT ( 'detailed design', #213, 'design' ) ;
#207 = UNCERTAINTY_MEASURE_WITH_UNIT (LENGTH_MEASURE( 1.000000000000000100E-005 ), #80, 'distance_accuracy_value', 'NONE');
#208 = ADVANCED_BREP_SHAPE_REPRESENTATION ( 'WRB40', ( #204, #29 ), #149 ) ;
#209 = APPLICATION_CONTEXT ( 'configuration controlled 3d designs of mechanical parts and assemblies' ) ;
#210 = APPLICATION_PROTOCOL_DEFINITION ( 'international standard', 'config_control_design', 1994, #209 ) ;
#211 = MECHANICAL_CONTEXT ( 'NONE', #209, 'mechanical' ) ;
#212 = PERSON_AND_ORGANIZATION_ROLE ( 'design_owner' ) ;
#213 = APPLICATION_CONTEXT ( 'configuration controlled 3d designs of mechanical parts and assemblies' ) ;
#214 = APPLICATION_PROTOCOL_DEFINITION ( 'international standard', 'config_control_design', 1994, #213 ) ;
#215 = APPROVAL_STATUS ( 'not_yet_approved' ) ;
#216 = APPROVAL_ROLE ( '' ) ;
#217 = PERSON_AND_ORGANIZATION_ROLE ( 'creator' ) ;
#218 = DATE_TIME_ROLE ( 'creation_date' ) ;
#219 = APPROVAL_STATUS ( 'not_yet_approved' ) ;
#220 = APPROVAL_ROLE ( '' ) ;
#221 = PERSON_AND_ORGANIZATION_ROLE ( 'creator' ) ;
#222 = PERSON_AND_ORGANIZATION_ROLE ( 'design_supplier' ) ;
#223 = SECURITY_CLASSIFICATION_LEVEL ( 'unclassified' ) ;
#224 = PERSON_AND_ORGANIZATION_ROLE ( 'classification_officer' ) ;
#225 = DATE_TIME_ROLE ( 'classification_date' ) ;
#226 = APPROVAL_STATUS ( 'not_yet_approved' ) ;
#227 = APPROVAL_ROLE ( '' ) ;
#228 = DIRECTION ( 'NONE',  ( -0.7071067811868738700, 8.659560562350938000E-017, -0.7071067811862212800 ) ) ;
#229 = CARTESIAN_POINT ( 'NONE',  ( 3000.000000000000000, 0.0000000000000000000, 19.49999999999985100 ) ) ;
#230 = DIRECTION ( 'NONE',  ( 0.0000000000000000000, 0.0000000000000000000, -1.000000000000000000 ) ) ;
#231 = DIRECTION ( 'NONE',  ( 1.000000000000000000, 0.0000000000000000000, 0.0000000000000000000 ) ) ;
#232 = CARTESIAN_POINT ( 'NONE',  ( 3000.000000000000000, 0.0000000000000000000, 0.0000000000000000000 ) ) ;
#233 = DIRECTION ( 'NONE',  ( 0.0000000000000000000, 0.0000000000000000000, -1.000000000000000000 ) ) ;
#234 = DIRECTION ( 'NONE',  ( -1.000000000000000000, 0.0000000000000000000, 0.0000000000000000000 ) ) ;
#235 = CARTESIAN_POINT ( 'NONE',  ( -3000.000000000000000, 0.0000000000000000000, 0.0000000000000000000 ) ) ;
#236 = CARTESIAN_POINT ( 'NONE',  ( 2999.499999999999500, 0.0000000000000000000, 0.0000000000000000000 ) ) ;
#237 = CARTESIAN_POINT ( 'NONE',  ( 3000.000000000000000, 2.388061258337320400E-015, -19.49999999999985100 ) ) ;
#238 = DIRECTION ( 'NONE',  ( 0.0000000000000000000, 0.0000000000000000000, -1.000000000000000000 ) ) ;
#239 = DIRECTION ( 'NONE',  ( 1.000000000000000000, 0.0000000000000000000, 0.0000000000000000000 ) ) ;
#240 = DIRECTION ( 'NONE',  ( -1.000000000000000000, 0.0000000000000000000, 0.0000000000000000000 ) ) ;
#241 = DIRECTION ( 'NONE',  ( 1.000000000000000000, 0.0000000000000000000, 0.0000000000000000000 ) ) ;
#242 = DIRECTION ( 'NONE',  ( 0.0000000000000000000, 0.0000000000000000000, -1.000000000000000000 ) ) ;
#243 = DIRECTION ( 'NONE',  ( 0.0000000000000000000, 0.0000000000000000000, 1.000000000000000000 ) ) ;
#244 = CARTESIAN_POINT ( 'NONE',  ( 3000.000000000000000, 0.0000000000000000000, 0.0000000000000000000 ) ) ;
#245 = DIRECTION ( 'NONE',  ( 0.0000000000000000000, 0.0000000000000000000, -1.000000000000000000 ) ) ;
#246 = DIRECTION ( 'NONE',  ( -1.000000000000000000, -0.0000000000000000000, -0.0000000000000000000 ) ) ;
#247 = CARTESIAN_POINT ( 'NONE',  ( -3000.000000000000000, 0.0000000000000000000, 0.0000000000000000000 ) ) ;
#248 = PERSON ( 'UNSPECIFIED', 'UNSPECIFIED', 'UNSPECIFIED', ('UNSPECIFIED'), ('UNSPECIFIED'), ('UNSPECIFIED') ) ;
#249 = PRODUCT ( 'WRB40', 'WRB40', '', ( #211 ) ) ;
#250 = DIRECTION ( 'NONE',  ( 0.0000000000000000000, 0.0000000000000000000, -1.000000000000000000 ) ) ;
#251 = DIRECTION ( 'NONE',  ( 1.000000000000000000, -0.0000000000000000000, -0.0000000000000000000 ) ) ;
#252 = VERTEX_POINT ( 'NONE', #67 ) ;
#253 = DIRECTION ( 'NONE',  ( 1.000000000000000000, -0.0000000000000000000, -0.0000000000000000000 ) ) ;
#254 = CARTESIAN_POINT ( 'NONE',  ( 3000.000000000000000, 0.0000000000000000000, 0.0000000000000000000 ) ) ;
#255 = DIRECTION ( 'NONE',  ( 1.000000000000000000, 0.0000000000000000000, 0.0000000000000000000 ) ) ;
#256 = DIRECTION ( 'NONE',  ( 0.0000000000000000000, 0.0000000000000000000, 1.000000000000000000 ) ) ;
#257 = DIRECTION ( 'NONE',  ( 0.0000000000000000000, 0.0000000000000000000, -1.000000000000000000 ) ) ;
#258 = VERTEX_POINT ( 'NONE', #68 ) ;
#259 = CARTESIAN_POINT ( 'NONE',  ( 3000.000000000000000, 0.0000000000000000000, 0.0000000000000000000 ) ) ;
#260 = VERTEX_POINT ( 'NONE', #62 ) ;
#261 = VERTEX_POINT ( 'NONE', #69 ) ;
#262 = DIRECTION ( 'NONE',  ( -1.000000000000000000, 0.0000000000000000000, 0.0000000000000000000 ) ) ;
#263 = DIRECTION ( 'NONE',  ( 0.0000000000000000000, 0.0000000000000000000, -1.000000000000000000 ) ) ;
#264 = CARTESIAN_POINT ( 'NONE',  ( -3000.000000000000000, 0.0000000000000000000, 0.0000000000000000000 ) ) ;
#265 = DIRECTION ( 'NONE',  ( 1.000000000000000000, 0.0000000000000000000, 0.0000000000000000000 ) ) ;
#266 = CARTESIAN_POINT ( 'NONE',  ( -3000.000000000000000, 0.0000000000000000000, 0.0000000000000000000 ) ) ;
#267 = VERTEX_POINT ( 'NONE', #58 ) ;
#268 = PLANE ( 'NONE',  #18 ) ;
#269 = VERTEX_POINT ( 'NONE', #91 ) ;
#270 = CARTESIAN_POINT ( 'NONE',  ( -2999.500000000000000, 0.0000000000000000000, 0.0000000000000000000 ) ) ;
#271 = CARTESIAN_POINT ( 'NONE',  ( -2999.500000000000000, 0.0000000000000000000, 0.0000000000000000000 ) ) ;
#272 = VERTEX_POINT ( 'NONE', #59 ) ;
#273 = VERTEX_POINT ( 'NONE', #90 ) ;
#274 = DIRECTION ( 'NONE',  ( 0.0000000000000000000, 0.0000000000000000000, -1.000000000000000000 ) ) ;
#275 = PLANE ( 'NONE',  #43 ) ;
ENDSEC;
END-ISO-10303-21;
