ISO-10303-21;
HEADER;
FILE_DESCRIPTION (( 'STEP AP203' ),
    '1' );
FILE_NAME ('WRA30.STEP',
    '2014-08-06T09:48:01',
    ( 'Ovidiu Buiga' ),
    ( '' ),
    'SwSTEP 2.0',
    'SolidWorks 2010',
    '' );
FILE_SCHEMA (( 'CONFIG_CONTROL_DESIGN' ));
ENDSEC;

DATA;
#1 = MECHANICAL_CONTEXT ( 'NONE', #165, 'mechanical' ) ;
#2 = PERSON_AND_ORGANIZATION_ROLE ( 'design_owner' ) ;
#3 = CARTESIAN_POINT ( 'NONE',  ( -3000.000000000000000, 0.0000000000000000000, 0.0000000000000000000 ) ) ;
#4 = CARTESIAN_POINT ( 'NONE',  ( 2999.499999999999500, 0.0000000000000000000, 0.0000000000000000000 ) ) ;
#5 = DIRECTION ( 'NONE',  ( 0.0000000000000000000, 0.0000000000000000000, -1.000000000000000000 ) ) ;
#6 = DIRECTION ( 'NONE',  ( 0.0000000000000000000, 0.0000000000000000000, 1.000000000000000000 ) ) ;
#7 = DIRECTION ( 'NONE',  ( 1.000000000000000000, 0.0000000000000000000, 0.0000000000000000000 ) ) ;
#8 = DIRECTION ( 'NONE',  ( 0.0000000000000000000, 0.0000000000000000000, -1.000000000000000000 ) ) ;
#9 = DIRECTION ( 'NONE',  ( -1.000000000000000000, -0.0000000000000000000, -0.0000000000000000000 ) ) ;
#10 = DIRECTION ( 'NONE',  ( 0.0000000000000000000, 0.0000000000000000000, -1.000000000000000000 ) ) ;
#11 = CARTESIAN_POINT ( 'NONE',  ( -3000.000000000000000, 0.0000000000000000000, 0.0000000000000000000 ) ) ;
#12 = PLANE ( 'NONE',  #206 ) ;
#13 = DIRECTION ( 'NONE',  ( 0.0000000000000000000, 0.0000000000000000000, -1.000000000000000000 ) ) ;
#14 = CARTESIAN_POINT ( 'NONE',  ( 3000.000000000000000, 1.775737858763548000E-015, -14.49999999999906700 ) ) ;
#15 = DIRECTION ( 'NONE',  ( -1.000000000000000000, 0.0000000000000000000, 0.0000000000000000000 ) ) ;
#16 = DIRECTION ( 'NONE',  ( 1.000000000000000000, 0.0000000000000000000, 0.0000000000000000000 ) ) ;
#17 = CARTESIAN_POINT ( 'NONE',  ( 3000.000000000000000, 0.0000000000000000000, 0.0000000000000000000 ) ) ;
#18 = CARTESIAN_POINT ( 'NONE',  ( -3000.000000000000000, 0.0000000000000000000, 0.0000000000000000000 ) ) ;
#19 = CARTESIAN_POINT ( 'NONE',  ( -3000.000000000000000, 0.0000000000000000000, 0.0000000000000000000 ) ) ;
#20 = DIRECTION ( 'NONE',  ( -1.000000000000000000, 0.0000000000000000000, 0.0000000000000000000 ) ) ;
#21 = APPLICATION_CONTEXT ( 'configuration controlled 3d designs of mechanical parts and assemblies' ) ;
#22 = DIRECTION ( 'NONE',  ( 0.0000000000000000000, 0.0000000000000000000, -1.000000000000000000 ) ) ;
#23 = DIRECTION ( 'NONE',  ( 1.000000000000000000, 0.0000000000000000000, 0.0000000000000000000 ) ) ;
#24 = MANIFOLD_SOLID_BREP ( 'Chamfer1', #157 ) ;
#25 = UNCERTAINTY_MEASURE_WITH_UNIT (LENGTH_MEASURE( 1.000000000000000100E-005 ), #268, 'distance_accuracy_value', 'NONE');
#26 = ADVANCED_BREP_SHAPE_REPRESENTATION ( 'WRA30', ( #24, #229 ), #125 ) ;
#27 = CARTESIAN_POINT ( 'NONE',  ( 3000.000000000000000, 0.0000000000000000000, 0.0000000000000000000 ) ) ;
#28 = VERTEX_POINT ( 'NONE', #51 ) ;
#29 = VERTEX_POINT ( 'NONE', #34 ) ;
#30 = DIRECTION ( 'NONE',  ( -1.000000000000000000, 0.0000000000000000000, 0.0000000000000000000 ) ) ;
#31 = DIRECTION ( 'NONE',  ( 0.0000000000000000000, 0.0000000000000000000, -1.000000000000000000 ) ) ;
#32 = DIRECTION ( 'NONE',  ( 1.000000000000000000, -0.0000000000000000000, -0.0000000000000000000 ) ) ;
#33 = CARTESIAN_POINT ( 'NONE',  ( 3000.000000000000000, 0.0000000000000000000, 0.0000000000000000000 ) ) ;
#34 = CARTESIAN_POINT ( 'NONE',  ( 2999.499999999999500, 1.836970198721029600E-015, 15.00000000000000000 ) ) ;
#35 = CARTESIAN_POINT ( 'NONE',  ( -2999.500000000000900, 1.836970198721029600E-015, 15.00000000000000000 ) ) ;
#36 = VERTEX_POINT ( 'NONE', #54 ) ;
#37 = CARTESIAN_POINT ( 'NONE',  ( -3000.000000000000000, 1.806354028742343000E-015, 14.49999999999995600 ) ) ;
#38 = DIRECTION ( 'NONE',  ( 0.0000000000000000000, 0.0000000000000000000, -1.000000000000000000 ) ) ;
#39 = DIRECTION ( 'NONE',  ( 0.0000000000000000000, 0.0000000000000000000, 1.000000000000000000 ) ) ;
#40 = CARTESIAN_POINT ( 'NONE',  ( -2999.500000000000900, 0.0000000000000000000, 0.0000000000000000000 ) ) ;
#41 = DIRECTION ( 'NONE',  ( 1.000000000000000000, 0.0000000000000000000, 0.0000000000000000000 ) ) ;
#42 = DIRECTION ( 'NONE',  ( 0.0000000000000000000, 0.0000000000000000000, -1.000000000000000000 ) ) ;
#43 = DIRECTION ( 'NONE',  ( 1.000000000000000000, -0.0000000000000000000, -0.0000000000000000000 ) ) ;
#44 = VERTEX_POINT ( 'NONE', #55 ) ;
#45 = VERTEX_POINT ( 'NONE', #37 ) ;
#46 = CARTESIAN_POINT ( 'NONE',  ( 3000.000000000000000, 1.806354028742289000E-015, -14.49999999999906700 ) ) ;
#47 = PLANE ( 'NONE',  #202 ) ;
#48 = VERTEX_POINT ( 'NONE', #46 ) ;
#49 = CARTESIAN_POINT ( 'NONE',  ( -2999.500000000000900, 0.0000000000000000000, -15.00000000000000000 ) ) ;
#50 = CARTESIAN_POINT ( 'NONE',  ( -2999.500000000000900, 0.0000000000000000000, 0.0000000000000000000 ) ) ;
#51 = CARTESIAN_POINT ( 'NONE',  ( -3000.000000000000000, 0.0000000000000000000, -14.49999999999995600 ) ) ;
#52 = VERTEX_POINT ( 'NONE', #49 ) ;
#53 = VERTEX_POINT ( 'NONE', #35 ) ;
#54 = CARTESIAN_POINT ( 'NONE',  ( 2999.499999999999500, 0.0000000000000000000, -15.00000000000000000 ) ) ;
#55 = CARTESIAN_POINT ( 'NONE',  ( 3000.000000000000000, 0.0000000000000000000, 14.49999999999906700 ) ) ;
#56 = LOCAL_TIME ( 12, 48, 1.000000000000000000, #64 ) ;
#57 = CALENDAR_DATE ( 2014, 6, 8 ) ;
#58 = DATE_AND_TIME ( #57, #56 ) ;
#59 = CALENDAR_DATE ( 2014, 6, 8 ) ;
#60 = LOCAL_TIME ( 12, 48, 1.000000000000000000, #72 ) ;
#61 = DATE_AND_TIME ( #73, #76 ) ;
#62 = DATE_AND_TIME ( #59, #68 ) ;
#63 = PERSON_AND_ORGANIZATION ( #198, #120 ) ;
#64 = COORDINATED_UNIVERSAL_TIME_OFFSET ( 2, 0, .AHEAD. ) ;
#65 = PERSON_AND_ORGANIZATION ( #198, #120 ) ;
#66 = PERSON_AND_ORGANIZATION ( #198, #120 ) ;
#67 = DATE_AND_TIME ( #80, #60 ) ;
#68 = LOCAL_TIME ( 12, 48, 1.000000000000000000, #79 ) ;
#69 = APPROVAL_DATE_TIME ( #83, #235 ) ;
#70 = PERSON_AND_ORGANIZATION ( #198, #120 ) ;
#71 = APPROVAL_PERSON_ORGANIZATION ( #78, #240, #257 ) ;
#72 = COORDINATED_UNIVERSAL_TIME_OFFSET ( 2, 0, .AHEAD. ) ;
#73 = CALENDAR_DATE ( 2014, 6, 8 ) ;
#74 = PERSON_AND_ORGANIZATION ( #198, #120 ) ;
#75 = APPROVAL_DATE_TIME ( #61, #240 ) ;
#76 = LOCAL_TIME ( 12, 48, 1.000000000000000000, #82 ) ;
#77 = APPROVAL_PERSON_ORGANIZATION ( #63, #247, #264 ) ;
#78 = PERSON_AND_ORGANIZATION ( #198, #120 ) ;
#79 = COORDINATED_UNIVERSAL_TIME_OFFSET ( 2, 0, .AHEAD. ) ;
#80 = CALENDAR_DATE ( 2014, 6, 8 ) ;
#81 = APPROVAL_DATE_TIME ( #62, #247 ) ;
#82 = COORDINATED_UNIVERSAL_TIME_OFFSET ( 2, 0, .AHEAD. ) ;
#83 = DATE_AND_TIME ( #84, #85 ) ;
#84 = CALENDAR_DATE ( 2014, 6, 8 ) ;
#85 = LOCAL_TIME ( 12, 48, 1.000000000000000000, #86 ) ;
#86 = COORDINATED_UNIVERSAL_TIME_OFFSET ( 2, 0, .AHEAD. ) ;
#87 = VECTOR ( 'NONE', #275, 1000.000000000000000 ) ;
#88 = CIRCLE ( 'NONE', #232, 14.49999999999995600 ) ;
#89 = LINE ( 'NONE', #180, #87 ) ;
#90 = CIRCLE ( 'NONE', #230, 15.00000000000000000 ) ;
#91 = VECTOR ( 'NONE', #269, 1000.000000000000000 ) ;
#92 = CIRCLE ( 'NONE', #231, 14.49999999999906700 ) ;
#93 = LINE ( 'NONE', #267, #91 ) ;
#94 = CIRCLE ( 'NONE', #228, 15.00000000000000000 ) ;
#95 = LINE ( 'NONE', #194, #100 ) ;
#96 = VECTOR ( 'NONE', #193, 1000.000000000000000 ) ;
#97 = CIRCLE ( 'NONE', #222, 14.49999999999906700 ) ;
#98 = LINE ( 'NONE', #189, #101 ) ;
#99 = CIRCLE ( 'NONE', #221, 15.00000000000000000 ) ;
#100 = VECTOR ( 'NONE', #184, 1000.000000000000000 ) ;
#101 = VECTOR ( 'NONE', #192, 1000.000000000000000 ) ;
#102 = LINE ( 'NONE', #195, #96 ) ;
#103 = CIRCLE ( 'NONE', #223, 14.49999999999995600 ) ;
#104 = LINE ( 'NONE', #14, #106 ) ;
#105 = CIRCLE ( 'NONE', #203, 15.00000000000000000 ) ;
#106 = VECTOR ( 'NONE', #177, 1000.000000000000000 ) ;
#107 = CYLINDRICAL_SURFACE ( 'NONE', #227, 15.00000000000000000 ) ;
#108 = CYLINDRICAL_SURFACE ( 'NONE', #224, 15.00000000000000000 ) ;
#109 = CONICAL_SURFACE ( 'NONE', #226, 14.49999999999906700, 0.7853981633977692400 ) ;
#110 = CONICAL_SURFACE ( 'NONE', #225, 14.49999999999906700, 0.7853981633977692400 ) ;
#111 = FACE_OUTER_BOUND ( 'NONE', #158, .T. ) ;
#112 = FACE_OUTER_BOUND ( 'NONE', #154, .T. ) ;
#113 = CONICAL_SURFACE ( 'NONE', #209, 15.00000000000000000, 0.7853981633982133300 ) ;
#114 = FACE_OUTER_BOUND ( 'NONE', #155, .T. ) ;
#115 = FACE_OUTER_BOUND ( 'NONE', #150, .T. ) ;
#116 = FACE_OUTER_BOUND ( 'NONE', #156, .T. ) ;
#117 = FACE_OUTER_BOUND ( 'NONE', #162, .T. ) ;
#118 = FACE_OUTER_BOUND ( 'NONE', #160, .T. ) ;
#119 = ORIENTED_EDGE ( 'NONE', *, *, #212, .T. ) ;
#120 = ORGANIZATION ( 'UNSPECIFIED', 'UNSPECIFIED', '' ) ;
#121 = PERSON_AND_ORGANIZATION ( #198, #120 ) ;
#122 = ORIENTED_EDGE ( 'NONE', *, *, #219, .F. ) ;
#123 = PERSON_AND_ORGANIZATION ( #198, #120 ) ;
#124 = SHAPE_DEFINITION_REPRESENTATION ( #265, #26 ) ;
#125 =( GEOMETRIC_REPRESENTATION_CONTEXT ( 3 ) GLOBAL_UNCERTAINTY_ASSIGNED_CONTEXT ( ( #25 ) ) GLOBAL_UNIT_ASSIGNED_CONTEXT ( ( #268, #273, #164 ) ) REPRESENTATION_CONTEXT ( 'NONE', 'WORKASPACE' ) );
#126 = ORIENTED_EDGE ( 'NONE', *, *, #216, .F. ) ;
#127 = APPROVAL_PERSON_ORGANIZATION ( #123, #235, #253 ) ;
#128 = ORIENTED_EDGE ( 'NONE', *, *, #211, .F. ) ;
#129 = ORIENTED_EDGE ( 'NONE', *, *, #205, .T. ) ;
#130 = ORIENTED_EDGE ( 'NONE', *, *, #214, .T. ) ;
#131 = ORIENTED_EDGE ( 'NONE', *, *, #218, .F. ) ;
#132 = ORIENTED_EDGE ( 'NONE', *, *, #207, .F. ) ;
#133 = ORIENTED_EDGE ( 'NONE', *, *, #211, .T. ) ;
#134 = ORIENTED_EDGE ( 'NONE', *, *, #219, .T. ) ;
#135 = ORIENTED_EDGE ( 'NONE', *, *, #207, .T. ) ;
#136 = ORIENTED_EDGE ( 'NONE', *, *, #215, .T. ) ;
#137 = ORIENTED_EDGE ( 'NONE', *, *, #220, .T. ) ;
#138 = ORIENTED_EDGE ( 'NONE', *, *, #205, .F. ) ;
#139 = ORIENTED_EDGE ( 'NONE', *, *, #218, .T. ) ;
#140 = ORIENTED_EDGE ( 'NONE', *, *, #210, .T. ) ;
#141 = ORIENTED_EDGE ( 'NONE', *, *, #210, .F. ) ;
#142 = ORIENTED_EDGE ( 'NONE', *, *, #204, .F. ) ;
#143 = ORIENTED_EDGE ( 'NONE', *, *, #208, .F. ) ;
#144 = ORIENTED_EDGE ( 'NONE', *, *, #216, .T. ) ;
#145 = ORIENTED_EDGE ( 'NONE', *, *, #208, .T. ) ;
#146 = ORIENTED_EDGE ( 'NONE', *, *, #214, .F. ) ;
#147 = ORIENTED_EDGE ( 'NONE', *, *, #220, .F. ) ;
#148 = ORIENTED_EDGE ( 'NONE', *, *, #217, .F. ) ;
#149 = ORIENTED_EDGE ( 'NONE', *, *, #212, .F. ) ;
#150 = EDGE_LOOP ( 'NONE', ( #128, #138, #134, #148 ) ) ;
#151 = ORIENTED_EDGE ( 'NONE', *, *, #215, .F. ) ;
#152 = ORIENTED_EDGE ( 'NONE', *, *, #217, .T. ) ;
#153 = ORIENTED_EDGE ( 'NONE', *, *, #204, .T. ) ;
#154 = EDGE_LOOP ( 'NONE', ( #129, #139 ) ) ;
#155 = EDGE_LOOP ( 'NONE', ( #145, #119, #153, #151 ) ) ;
#156 = EDGE_LOOP ( 'NONE', ( #144, #140 ) ) ;
#157 = CLOSED_SHELL ( 'NONE', ( #172, #169, #173, #175, #174, #170, #168, #171 ) ) ;
#158 = EDGE_LOOP ( 'NONE', ( #149, #152, #136, #130 ) ) ;
#159 = CONICAL_SURFACE ( 'NONE', #213, 15.00000000000000000, 0.7853981633982133300 ) ;
#160 = EDGE_LOOP ( 'NONE', ( #132, #126, #137, #146 ) ) ;
#161 = FACE_OUTER_BOUND ( 'NONE', #163, .T. ) ;
#162 = EDGE_LOOP ( 'NONE', ( #141, #135, #142, #147 ) ) ;
#163 = EDGE_LOOP ( 'NONE', ( #131, #133, #143, #122 ) ) ;
#164 =( NAMED_UNIT ( * ) SI_UNIT ( $, .STERADIAN. ) SOLID_ANGLE_UNIT ( ) );
#165 = APPLICATION_CONTEXT ( 'configuration controlled 3d designs of mechanical parts and assemblies' ) ;
#166 = CARTESIAN_POINT ( 'NONE',  ( 0.0000000000000000000, 0.0000000000000000000, 0.0000000000000000000 ) ) ;
#167 = APPLICATION_PROTOCOL_DEFINITION ( 'international standard', 'config_control_design', 1994, #165 ) ;
#168 = ADVANCED_FACE ( 'NONE', ( #115 ), #159, .T. ) ;
#169 = ADVANCED_FACE ( 'NONE', ( #161 ), #113, .T. ) ;
#170 = ADVANCED_FACE ( 'NONE', ( #116 ), #47, .T. ) ;
#171 = ADVANCED_FACE ( 'NONE', ( #118 ), #110, .T. ) ;
#172 = ADVANCED_FACE ( 'NONE', ( #117 ), #109, .T. ) ;
#173 = ADVANCED_FACE ( 'NONE', ( #114 ), #108, .T. ) ;
#174 = ADVANCED_FACE ( 'NONE', ( #112 ), #12, .F. ) ;
#175 = ADVANCED_FACE ( 'NONE', ( #111 ), #107, .T. ) ;
#176 = CARTESIAN_POINT ( 'NONE',  ( 3000.000000000000000, 0.0000000000000000000, 0.0000000000000000000 ) ) ;
#177 = DIRECTION ( 'NONE',  ( -0.7071067811863206400, 8.659560562357713600E-017, -0.7071067811867745000 ) ) ;
#178 = DIRECTION ( 'NONE',  ( 0.0000000000000000000, 0.0000000000000000000, -1.000000000000000000 ) ) ;
#179 = DIRECTION ( 'NONE',  ( 1.000000000000000000, -0.0000000000000000000, -0.0000000000000000000 ) ) ;
#180 = CARTESIAN_POINT ( 'NONE',  ( 3000.000000000000000, 0.0000000000000000000, 14.49999999999906700 ) ) ;
#181 = DIRECTION ( 'NONE',  ( 0.0000000000000000000, 0.0000000000000000000, -1.000000000000000000 ) ) ;
#182 = DIRECTION ( 'NONE',  ( 1.000000000000000000, 0.0000000000000000000, 0.0000000000000000000 ) ) ;
#183 = CARTESIAN_POINT ( 'NONE',  ( -3000.000000000000000, 0.0000000000000000000, 0.0000000000000000000 ) ) ;
#184 = DIRECTION ( 'NONE',  ( 1.000000000000000000, 0.0000000000000000000, 0.0000000000000000000 ) ) ;
#185 = CARTESIAN_POINT ( 'NONE',  ( 3000.000000000000000, 0.0000000000000000000, 0.0000000000000000000 ) ) ;
#186 = DIRECTION ( 'NONE',  ( 0.0000000000000000000, 0.0000000000000000000, -1.000000000000000000 ) ) ;
#187 = DIRECTION ( 'NONE',  ( -1.000000000000000000, 0.0000000000000000000, 0.0000000000000000000 ) ) ;
#188 = CARTESIAN_POINT ( 'NONE',  ( -2999.500000000000900, 0.0000000000000000000, 0.0000000000000000000 ) ) ;
#189 = CARTESIAN_POINT ( 'NONE',  ( -2999.500000000000900, 1.836970198721029600E-015, 15.00000000000000000 ) ) ;
#190 = CARTESIAN_POINT ( 'NONE',  ( 2999.499999999999500, 0.0000000000000000000, 0.0000000000000000000 ) ) ;
#191 = CARTESIAN_POINT ( 'NONE',  ( -2999.500000000000900, 0.0000000000000000000, 0.0000000000000000000 ) ) ;
#192 = DIRECTION ( 'NONE',  ( 0.7071067811860065600, 8.659560562361559300E-017, 0.7071067811870884700 ) ) ;
#193 = DIRECTION ( 'NONE',  ( 1.000000000000000000, 0.0000000000000000000, 0.0000000000000000000 ) ) ;
#194 = CARTESIAN_POINT ( 'NONE',  ( -3000.000000000000000, 0.0000000000000000000, -15.00000000000000000 ) ) ;
#195 = CARTESIAN_POINT ( 'NONE',  ( -3000.000000000000000, 1.836970198721029600E-015, 15.00000000000000000 ) ) ;
#196 = DIRECTION ( 'NONE',  ( 0.0000000000000000000, 0.0000000000000000000, -1.000000000000000000 ) ) ;
#197 = DIRECTION ( 'NONE',  ( 1.000000000000000000, 0.0000000000000000000, 0.0000000000000000000 ) ) ;
#198 = PERSON ( 'UNSPECIFIED', 'UNSPECIFIED', 'UNSPECIFIED', ('UNSPECIFIED'), ('UNSPECIFIED'), ('UNSPECIFIED') ) ;
#199 = PRODUCT ( 'WRA30', 'WRA30', '', ( #1 ) ) ;
#200 = DIRECTION ( 'NONE',  ( 1.000000000000000000, 0.0000000000000000000, 0.0000000000000000000 ) ) ;
#201 = DIRECTION ( 'NONE',  ( 0.0000000000000000000, 0.0000000000000000000, 1.000000000000000000 ) ) ;
#202 = AXIS2_PLACEMENT_3D ( 'NONE', #27, #41, #38 ) ;
#203 = AXIS2_PLACEMENT_3D ( 'NONE', #4, #20, #13 ) ;
#204 = EDGE_CURVE ( 'NONE', #29, #36, #105, .T. ) ;
#205 = EDGE_CURVE ( 'NONE', #28, #45, #103, .T. ) ;
#206 = AXIS2_PLACEMENT_3D ( 'NONE', #3, #7, #22 ) ;
#207 = EDGE_CURVE ( 'NONE', #48, #36, #104, .T. ) ;
#208 = EDGE_CURVE ( 'NONE', #52, #53, #99, .T. ) ;
#209 = AXIS2_PLACEMENT_3D ( 'NONE', #40, #43, #31 ) ;
#210 = EDGE_CURVE ( 'NONE', #48, #44, #97, .T. ) ;
#211 = EDGE_CURVE ( 'NONE', #45, #53, #98, .T. ) ;
#212 = EDGE_CURVE ( 'NONE', #53, #29, #102, .T. ) ;
#213 = AXIS2_PLACEMENT_3D ( 'NONE', #50, #32, #42 ) ;
#214 = EDGE_CURVE ( 'NONE', #36, #29, #94, .T. ) ;
#215 = EDGE_CURVE ( 'NONE', #52, #36, #95, .T. ) ;
#216 = EDGE_CURVE ( 'NONE', #44, #48, #92, .T. ) ;
#217 = EDGE_CURVE ( 'NONE', #53, #52, #90, .T. ) ;
#218 = EDGE_CURVE ( 'NONE', #45, #28, #88, .T. ) ;
#219 = EDGE_CURVE ( 'NONE', #28, #52, #93, .T. ) ;
#220 = EDGE_CURVE ( 'NONE', #44, #29, #89, .T. ) ;
#221 = AXIS2_PLACEMENT_3D ( 'NONE', #191, #179, #178 ) ;
#222 = AXIS2_PLACEMENT_3D ( 'NONE', #176, #197, #196 ) ;
#223 = AXIS2_PLACEMENT_3D ( 'NONE', #11, #9, #10 ) ;
#224 = AXIS2_PLACEMENT_3D ( 'NONE', #19, #23, #8 ) ;
#225 = AXIS2_PLACEMENT_3D ( 'NONE', #33, #30, #39 ) ;
#226 = AXIS2_PLACEMENT_3D ( 'NONE', #17, #15, #6 ) ;
#227 = AXIS2_PLACEMENT_3D ( 'NONE', #18, #16, #5 ) ;
#228 = AXIS2_PLACEMENT_3D ( 'NONE', #190, #187, #186 ) ;
#229 = AXIS2_PLACEMENT_3D ( 'NONE', #166, #201, #200 ) ;
#230 = AXIS2_PLACEMENT_3D ( 'NONE', #188, #272, #271 ) ;
#231 = AXIS2_PLACEMENT_3D ( 'NONE', #185, #182, #181 ) ;
#232 = AXIS2_PLACEMENT_3D ( 'NONE', #183, #270, #274 ) ;
#233 = CC_DESIGN_PERSON_AND_ORGANIZATION_ASSIGNMENT ( #121, #2, ( #199 ) ) ;
#234 = PRODUCT_DEFINITION ( 'UNKNOWN', '', #239, #266 ) ;
#235 = APPROVAL ( #252, 'UNSPECIFIED' ) ;
#236 = CC_DESIGN_APPROVAL ( #235, ( #234 ) ) ;
#237 = CC_DESIGN_PERSON_AND_ORGANIZATION_ASSIGNMENT ( #65, #254, ( #234 ) ) ;
#238 = CC_DESIGN_DATE_AND_TIME_ASSIGNMENT ( #58, #255, ( #234 ) ) ;
#239 = PRODUCT_DEFINITION_FORMATION_WITH_SPECIFIED_SOURCE ( 'ANY', '', #199, .NOT_KNOWN. ) ;
#240 = APPROVAL ( #256, 'UNSPECIFIED' ) ;
#241 = CC_DESIGN_APPROVAL ( #240, ( #239 ) ) ;
#242 = CC_DESIGN_PERSON_AND_ORGANIZATION_ASSIGNMENT ( #66, #258, ( #239 ) ) ;
#243 = CC_DESIGN_PERSON_AND_ORGANIZATION_ASSIGNMENT ( #70, #259, ( #239 ) ) ;
#244 = SECURITY_CLASSIFICATION ( '', '', #260 ) ;
#245 = CC_DESIGN_PERSON_AND_ORGANIZATION_ASSIGNMENT ( #74, #261, ( #244 ) ) ;
#246 = CC_DESIGN_DATE_AND_TIME_ASSIGNMENT ( #67, #262, ( #244 ) ) ;
#247 = APPROVAL ( #263, 'UNSPECIFIED' ) ;
#248 = CC_DESIGN_APPROVAL ( #247, ( #244 ) ) ;
#249 = CC_DESIGN_SECURITY_CLASSIFICATION ( #244, ( #239 ) ) ;
#250 = PRODUCT_RELATED_PRODUCT_CATEGORY ( 'detail', '', ( #199 ) ) ;
#251 = APPLICATION_PROTOCOL_DEFINITION ( 'international standard', 'config_control_design', 1994, #21 ) ;
#252 = APPROVAL_STATUS ( 'not_yet_approved' ) ;
#253 = APPROVAL_ROLE ( '' ) ;
#254 = PERSON_AND_ORGANIZATION_ROLE ( 'creator' ) ;
#255 = DATE_TIME_ROLE ( 'creation_date' ) ;
#256 = APPROVAL_STATUS ( 'not_yet_approved' ) ;
#257 = APPROVAL_ROLE ( '' ) ;
#258 = PERSON_AND_ORGANIZATION_ROLE ( 'creator' ) ;
#259 = PERSON_AND_ORGANIZATION_ROLE ( 'design_supplier' ) ;
#260 = SECURITY_CLASSIFICATION_LEVEL ( 'unclassified' ) ;
#261 = PERSON_AND_ORGANIZATION_ROLE ( 'classification_officer' ) ;
#262 = DATE_TIME_ROLE ( 'classification_date' ) ;
#263 = APPROVAL_STATUS ( 'not_yet_approved' ) ;
#264 = APPROVAL_ROLE ( '' ) ;
#265 = PRODUCT_DEFINITION_SHAPE ( 'NONE', 'NONE',  #234 ) ;
#266 = DESIGN_CONTEXT ( 'detailed design', #21, 'design' ) ;
#267 = CARTESIAN_POINT ( 'NONE',  ( -2999.500000000000900, 0.0000000000000000000, -15.00000000000000000 ) ) ;
#268 =( LENGTH_UNIT ( ) NAMED_UNIT ( * ) SI_UNIT ( .MILLI., .METRE. ) );
#269 = DIRECTION ( 'NONE',  ( 0.7071067811860065600, 0.0000000000000000000, -0.7071067811870884700 ) ) ;
#270 = DIRECTION ( 'NONE',  ( -1.000000000000000000, -0.0000000000000000000, -0.0000000000000000000 ) ) ;
#271 = DIRECTION ( 'NONE',  ( 0.0000000000000000000, 0.0000000000000000000, -1.000000000000000000 ) ) ;
#272 = DIRECTION ( 'NONE',  ( 1.000000000000000000, -0.0000000000000000000, -0.0000000000000000000 ) ) ;
#273 =( NAMED_UNIT ( * ) PLANE_ANGLE_UNIT ( ) SI_UNIT ( $, .RADIAN. ) );
#274 = DIRECTION ( 'NONE',  ( 0.0000000000000000000, 0.0000000000000000000, -1.000000000000000000 ) ) ;
#275 = DIRECTION ( 'NONE',  ( -0.7071067811863206400, 0.0000000000000000000, 0.7071067811867745000 ) ) ;
ENDSEC;
END-ISO-10303-21;
