ISO-10303-21;
HEADER;
FILE_DESCRIPTION (( 'STEP AP203' ),
    '1' );
FILE_NAME ('WRA20.STEP',
    '2014-08-06T09:47:11',
    ( 'Ovidiu Buiga' ),
    ( '' ),
    'SwSTEP 2.0',
    'SolidWorks 2010',
    '' );
FILE_SCHEMA (( 'CONFIG_CONTROL_DESIGN' ));
ENDSEC;

DATA;
#1 = CARTESIAN_POINT ( 'NONE',  ( 2999.499999999999500, 1.224646799147353300E-015, 10.00000000000000000 ) ) ;
#2 = CARTESIAN_POINT ( 'NONE',  ( -3000.000000000000000, 1.194030629168727600E-015, 9.500000000000952100 ) ) ;
#3 = CARTESIAN_POINT ( 'NONE',  ( 3000.000000000000000, 1.194030629168619000E-015, -9.499999999999175800 ) ) ;
#4 = CARTESIAN_POINT ( 'NONE',  ( -3000.000000000000000, 0.0000000000000000000, -9.500000000000952100 ) ) ;
#5 = DIRECTION ( 'NONE',  ( 1.000000000000000000, -0.0000000000000000000, -0.0000000000000000000 ) ) ;
#6 = CARTESIAN_POINT ( 'NONE',  ( 2999.499999999999500, 0.0000000000000000000, -10.00000000000000000 ) ) ;
#7 = VERTEX_POINT ( 'NONE', #4 ) ;
#8 = VERTEX_POINT ( 'NONE', #2 ) ;
#9 = VERTEX_POINT ( 'NONE', #1 ) ;
#10 = CARTESIAN_POINT ( 'NONE',  ( -2999.500000000000900, 0.0000000000000000000, 0.0000000000000000000 ) ) ;
#11 = VERTEX_POINT ( 'NONE', #18 ) ;
#12 = VERTEX_POINT ( 'NONE', #16 ) ;
#13 = CARTESIAN_POINT ( 'NONE',  ( -2999.500000000000900, 0.0000000000000000000, -10.00000000000000000 ) ) ;
#14 = VERTEX_POINT ( 'NONE', #3 ) ;
#15 = DIRECTION ( 'NONE',  ( 0.0000000000000000000, 0.0000000000000000000, -1.000000000000000000 ) ) ;
#16 = CARTESIAN_POINT ( 'NONE',  ( -2999.500000000000900, 1.224646799147353300E-015, 10.00000000000000000 ) ) ;
#17 = VERTEX_POINT ( 'NONE', #6 ) ;
#18 = CARTESIAN_POINT ( 'NONE',  ( 3000.000000000000000, 0.0000000000000000000, 9.499999999999175800 ) ) ;
#19 = VERTEX_POINT ( 'NONE', #13 ) ;
#20 = ADVANCED_FACE ( 'NONE', ( #140 ), #108, .T. ) ;
#21 = ADVANCED_FACE ( 'NONE', ( #126 ), #104, .T. ) ;
#22 = ADVANCED_FACE ( 'NONE', ( #110 ), #132, .T. ) ;
#23 = ADVANCED_FACE ( 'NONE', ( #125 ), #152, .F. ) ;
#24 = ADVANCED_FACE ( 'NONE', ( #69 ), #105, .T. ) ;
#25 = ADVANCED_FACE ( 'NONE', ( #103 ), #89, .T. ) ;
#26 = ADVANCED_FACE ( 'NONE', ( #141 ), #90, .T. ) ;
#27 = ADVANCED_FACE ( 'NONE', ( #131 ), #155, .T. ) ;
#28 = ADVANCED_BREP_SHAPE_REPRESENTATION ( 'WRA20', ( #30, #214 ), #93 ) ;
#29 = UNCERTAINTY_MEASURE_WITH_UNIT (LENGTH_MEASURE( 1.000000000000000100E-005 ), #263, 'distance_accuracy_value', 'NONE');
#30 = MANIFOLD_SOLID_BREP ( 'Chamfer1', #98 ) ;
#31 = CARTESIAN_POINT ( 'NONE',  ( -3000.000000000000000, 1.224646799147353300E-015, 10.00000000000000000 ) ) ;
#32 = DIRECTION ( 'NONE',  ( -1.000000000000000000, -0.0000000000000000000, -0.0000000000000000000 ) ) ;
#33 = DIRECTION ( 'NONE',  ( -0.7071067811863966900, 8.659560562356781800E-017, -0.7071067811866984500 ) ) ;
#34 = CARTESIAN_POINT ( 'NONE',  ( -3000.000000000000000, 0.0000000000000000000, 0.0000000000000000000 ) ) ;
#35 = COORDINATED_UNIVERSAL_TIME_OFFSET ( 2, 0, .AHEAD. ) ;
#36 = CALENDAR_DATE ( 2014, 6, 8 ) ;
#37 = VECTOR ( 'NONE', #247, 1000.000000000000000 ) ;
#38 = PERSON_AND_ORGANIZATION ( #171, #78 ) ;
#39 = ORIENTED_EDGE ( 'NONE', *, *, #205, .T. ) ;
#40 = ORIENTED_EDGE ( 'NONE', *, *, #194, .T. ) ;
#41 = CIRCLE ( 'NONE', #197, 9.499999999999175800 ) ;
#42 = CALENDAR_DATE ( 2014, 6, 8 ) ;
#43 = LOCAL_TIME ( 12, 47, 11.00000000000000000, #120 ) ;
#44 = APPROVAL_PERSON_ORGANIZATION ( #57, #225, #231 ) ;
#45 = COORDINATED_UNIVERSAL_TIME_OFFSET ( 2, 0, .AHEAD. ) ;
#46 = PERSON_AND_ORGANIZATION ( #171, #78 ) ;
#47 = PERSON_AND_ORGANIZATION ( #171, #78 ) ;
#48 = ORIENTED_EDGE ( 'NONE', *, *, #205, .F. ) ;
#49 = ORIENTED_EDGE ( 'NONE', *, *, #210, .T. ) ;
#50 = EDGE_LOOP ( 'NONE', ( #130, #137, #80, #63 ) ) ;
#51 = APPROVAL_DATE_TIME ( #72, #203 ) ;
#52 = APPROVAL_DATE_TIME ( #75, #225 ) ;
#53 = PERSON_AND_ORGANIZATION ( #171, #78 ) ;
#54 = VECTOR ( 'NONE', #244, 1000.000000000000000 ) ;
#55 = COORDINATED_UNIVERSAL_TIME_OFFSET ( 2, 0, .AHEAD. ) ;
#56 = CALENDAR_DATE ( 2014, 6, 8 ) ;
#57 = PERSON_AND_ORGANIZATION ( #171, #78 ) ;
#58 = DATE_AND_TIME ( #74, #73 ) ;
#59 = PERSON_AND_ORGANIZATION ( #171, #78 ) ;
#60 = LOCAL_TIME ( 12, 47, 11.00000000000000000, #61 ) ;
#61 = COORDINATED_UNIVERSAL_TIME_OFFSET ( 2, 0, .AHEAD. ) ;
#62 = CALENDAR_DATE ( 2014, 6, 8 ) ;
#63 = ORIENTED_EDGE ( 'NONE', *, *, #179, .F. ) ;
#64 = DATE_AND_TIME ( #36, #60 ) ;
#65 = APPROVAL_DATE_TIME ( #64, #218 ) ;
#66 = APPROVAL_PERSON_ORGANIZATION ( #59, #218, #238 ) ;
#67 = ORIENTED_EDGE ( 'NONE', *, *, #185, .F. ) ;
#68 = ORIENTED_EDGE ( 'NONE', *, *, #198, .T. ) ;
#69 = FACE_OUTER_BOUND ( 'NONE', #135, .T. ) ;
#70 = EDGE_LOOP ( 'NONE', ( #49, #113 ) ) ;
#71 = PERSON_AND_ORGANIZATION ( #171, #78 ) ;
#72 = DATE_AND_TIME ( #62, #43 ) ;
#73 = LOCAL_TIME ( 12, 47, 11.00000000000000000, #55 ) ;
#74 = CALENDAR_DATE ( 2014, 6, 8 ) ;
#75 = DATE_AND_TIME ( #42, #94 ) ;
#76 = CIRCLE ( 'NONE', #183, 9.499999999999175800 ) ;
#77 = APPROVAL_PERSON_ORGANIZATION ( #53, #203, #227 ) ;
#78 = ORGANIZATION ( 'UNSPECIFIED', 'UNSPECIFIED', '' ) ;
#79 = ORIENTED_EDGE ( 'NONE', *, *, #201, .F. ) ;
#80 = ORIENTED_EDGE ( 'NONE', *, *, #178, .T. ) ;
#81 = ORIENTED_EDGE ( 'NONE', *, *, #191, .T. ) ;
#82 = CIRCLE ( 'NONE', #180, 10.00000000000000000 ) ;
#83 = EDGE_LOOP ( 'NONE', ( #68, #81, #96, #67 ) ) ;
#84 = LOCAL_TIME ( 12, 47, 11.00000000000000000, #35 ) ;
#85 = CIRCLE ( 'NONE', #199, 10.00000000000000000 ) ;
#86 = ORIENTED_EDGE ( 'NONE', *, *, #206, .T. ) ;
#87 = PERSON_AND_ORGANIZATION ( #171, #78 ) ;
#88 = LINE ( 'NONE', #249, #92 ) ;
#89 = CYLINDRICAL_SURFACE ( 'NONE', #193, 10.00000000000000000 ) ;
#90 = CONICAL_SURFACE ( 'NONE', #195, 10.00000000000000000, 0.7853981633972175700 ) ;
#91 = SHAPE_DEFINITION_REPRESENTATION ( #240, #28 ) ;
#92 = VECTOR ( 'NONE', #255, 1000.000000000000000 ) ;
#93 =( GEOMETRIC_REPRESENTATION_CONTEXT ( 3 ) GLOBAL_UNCERTAINTY_ASSIGNED_CONTEXT ( ( #29 ) ) GLOBAL_UNIT_ASSIGNED_CONTEXT ( ( #263, #262, #266 ) ) REPRESENTATION_CONTEXT ( 'NONE', 'WORKASPACE' ) );
#94 = LOCAL_TIME ( 12, 47, 11.00000000000000000, #45 ) ;
#95 = LINE ( 'NONE', #246, #37 ) ;
#96 = ORIENTED_EDGE ( 'NONE', *, *, #190, .T. ) ;
#97 = ORIENTED_EDGE ( 'NONE', *, *, #206, .F. ) ;
#98 = CLOSED_SHELL ( 'NONE', ( #24, #20, #22, #25, #23, #27, #26, #21 ) ) ;
#99 = VECTOR ( 'NONE', #143, 1000.000000000000000 ) ;
#100 = CIRCLE ( 'NONE', #208, 10.00000000000000000 ) ;
#101 = ORIENTED_EDGE ( 'NONE', *, *, #190, .F. ) ;
#102 = ORIENTED_EDGE ( 'NONE', *, *, #189, .F. ) ;
#103 = FACE_OUTER_BOUND ( 'NONE', #117, .T. ) ;
#104 = CONICAL_SURFACE ( 'NONE', #192, 9.499999999999175800, 0.7853981633976616600 ) ;
#105 = CONICAL_SURFACE ( 'NONE', #200, 9.499999999999175800, 0.7853981633976616600 ) ;
#106 = VECTOR ( 'NONE', #176, 1000.000000000000000 ) ;
#107 = LINE ( 'NONE', #148, #106 ) ;
#108 = CONICAL_SURFACE ( 'NONE', #186, 10.00000000000000000, 0.7853981633972175700 ) ;
#109 = VECTOR ( 'NONE', #33, 1000.000000000000000 ) ;
#110 = FACE_OUTER_BOUND ( 'NONE', #83, .T. ) ;
#111 = ORIENTED_EDGE ( 'NONE', *, *, #210, .F. ) ;
#112 = DATE_AND_TIME ( #56, #84 ) ;
#113 = ORIENTED_EDGE ( 'NONE', *, *, #189, .T. ) ;
#114 = LINE ( 'NONE', #177, #99 ) ;
#115 = ORIENTED_EDGE ( 'NONE', *, *, #201, .T. ) ;
#116 = ORIENTED_EDGE ( 'NONE', *, *, #181, .T. ) ;
#117 = EDGE_LOOP ( 'NONE', ( #134, #86, #139, #136 ) ) ;
#118 = CIRCLE ( 'NONE', #184, 10.00000000000000000 ) ;
#119 = LINE ( 'NONE', #144, #109 ) ;
#120 = COORDINATED_UNIVERSAL_TIME_OFFSET ( 2, 0, .AHEAD. ) ;
#121 = ORIENTED_EDGE ( 'NONE', *, *, #198, .F. ) ;
#122 = LINE ( 'NONE', #31, #54 ) ;
#123 = EDGE_LOOP ( 'NONE', ( #142, #115 ) ) ;
#124 = ORIENTED_EDGE ( 'NONE', *, *, #194, .F. ) ;
#125 = FACE_OUTER_BOUND ( 'NONE', #70, .T. ) ;
#126 = FACE_OUTER_BOUND ( 'NONE', #50, .T. ) ;
#127 = CIRCLE ( 'NONE', #188, 9.500000000000952100 ) ;
#128 = EDGE_LOOP ( 'NONE', ( #102, #40, #121, #48 ) ) ;
#129 = ORIENTED_EDGE ( 'NONE', *, *, #178, .F. ) ;
#130 = ORIENTED_EDGE ( 'NONE', *, *, #181, .F. ) ;
#131 = FACE_OUTER_BOUND ( 'NONE', #123, .T. ) ;
#132 = CYLINDRICAL_SURFACE ( 'NONE', #187, 10.00000000000000000 ) ;
#133 = EDGE_LOOP ( 'NONE', ( #124, #111, #39, #97 ) ) ;
#134 = ORIENTED_EDGE ( 'NONE', *, *, #191, .F. ) ;
#135 = EDGE_LOOP ( 'NONE', ( #79, #116, #101, #129 ) ) ;
#136 = ORIENTED_EDGE ( 'NONE', *, *, #179, .T. ) ;
#137 = ORIENTED_EDGE ( 'NONE', *, *, #207, .F. ) ;
#138 = CIRCLE ( 'NONE', #204, 9.500000000000952100 ) ;
#139 = ORIENTED_EDGE ( 'NONE', *, *, #185, .T. ) ;
#140 = FACE_OUTER_BOUND ( 'NONE', #128, .T. ) ;
#141 = FACE_OUTER_BOUND ( 'NONE', #133, .T. ) ;
#142 = ORIENTED_EDGE ( 'NONE', *, *, #207, .T. ) ;
#143 = DIRECTION ( 'NONE',  ( 1.000000000000000000, 0.0000000000000000000, 0.0000000000000000000 ) ) ;
#144 = CARTESIAN_POINT ( 'NONE',  ( 3000.000000000000000, 1.163414459189884500E-015, -9.499999999999175800 ) ) ;
#145 = CARTESIAN_POINT ( 'NONE',  ( 2999.499999999999500, 0.0000000000000000000, 0.0000000000000000000 ) ) ;
#146 = DIRECTION ( 'NONE',  ( 0.0000000000000000000, 0.0000000000000000000, -1.000000000000000000 ) ) ;
#147 = DIRECTION ( 'NONE',  ( 1.000000000000000000, 0.0000000000000000000, 0.0000000000000000000 ) ) ;
#148 = CARTESIAN_POINT ( 'NONE',  ( 3000.000000000000000, 0.0000000000000000000, 9.499999999999175800 ) ) ;
#149 = DIRECTION ( 'NONE',  ( 0.0000000000000000000, 0.0000000000000000000, -1.000000000000000000 ) ) ;
#150 = CARTESIAN_POINT ( 'NONE',  ( -3000.000000000000000, 0.0000000000000000000, 0.0000000000000000000 ) ) ;
#151 = DIRECTION ( 'NONE',  ( 0.0000000000000000000, 0.0000000000000000000, 1.000000000000000000 ) ) ;
#152 = PLANE ( 'NONE',  #196 ) ;
#153 = CARTESIAN_POINT ( 'NONE',  ( 3000.000000000000000, 0.0000000000000000000, 0.0000000000000000000 ) ) ;
#154 = DIRECTION ( 'NONE',  ( 1.000000000000000000, -0.0000000000000000000, -0.0000000000000000000 ) ) ;
#155 = PLANE ( 'NONE',  #202 ) ;
#156 = DIRECTION ( 'NONE',  ( 1.000000000000000000, 0.0000000000000000000, 0.0000000000000000000 ) ) ;
#157 = CARTESIAN_POINT ( 'NONE',  ( 3000.000000000000000, 0.0000000000000000000, 0.0000000000000000000 ) ) ;
#158 = DIRECTION ( 'NONE',  ( 1.000000000000000000, 0.0000000000000000000, 0.0000000000000000000 ) ) ;
#159 = DIRECTION ( 'NONE',  ( -1.000000000000000000, 0.0000000000000000000, 0.0000000000000000000 ) ) ;
#160 = CARTESIAN_POINT ( 'NONE',  ( 3000.000000000000000, 0.0000000000000000000, 0.0000000000000000000 ) ) ;
#161 = DIRECTION ( 'NONE',  ( 1.000000000000000000, 0.0000000000000000000, 0.0000000000000000000 ) ) ;
#162 = CARTESIAN_POINT ( 'NONE',  ( -3000.000000000000000, 0.0000000000000000000, 0.0000000000000000000 ) ) ;
#163 = DIRECTION ( 'NONE',  ( 0.0000000000000000000, 0.0000000000000000000, -1.000000000000000000 ) ) ;
#164 = CARTESIAN_POINT ( 'NONE',  ( -2999.500000000000900, 0.0000000000000000000, 0.0000000000000000000 ) ) ;
#165 = DIRECTION ( 'NONE',  ( 0.0000000000000000000, 0.0000000000000000000, -1.000000000000000000 ) ) ;
#166 = DIRECTION ( 'NONE',  ( 0.0000000000000000000, 0.0000000000000000000, -1.000000000000000000 ) ) ;
#167 = DIRECTION ( 'NONE',  ( 0.0000000000000000000, 0.0000000000000000000, 1.000000000000000000 ) ) ;
#168 = DIRECTION ( 'NONE',  ( 0.0000000000000000000, 0.0000000000000000000, -1.000000000000000000 ) ) ;
#169 = DIRECTION ( 'NONE',  ( -1.000000000000000000, 0.0000000000000000000, 0.0000000000000000000 ) ) ;
#170 = CARTESIAN_POINT ( 'NONE',  ( -3000.000000000000000, 0.0000000000000000000, 0.0000000000000000000 ) ) ;
#171 = PERSON ( 'UNSPECIFIED', 'UNSPECIFIED', 'UNSPECIFIED', ('UNSPECIFIED'), ('UNSPECIFIED'), ('UNSPECIFIED') ) ;
#172 = PRODUCT ( 'WRA20', 'WRA20', '', ( #272 ) ) ;
#173 = APPROVAL_STATUS ( 'not_yet_approved' ) ;
#174 = DIRECTION ( 'NONE',  ( 0.0000000000000000000, 0.0000000000000000000, -1.000000000000000000 ) ) ;
#175 = DIRECTION ( 'NONE',  ( -1.000000000000000000, 0.0000000000000000000, 0.0000000000000000000 ) ) ;
#176 = DIRECTION ( 'NONE',  ( -0.7071067811863966900, 0.0000000000000000000, 0.7071067811866984500 ) ) ;
#177 = CARTESIAN_POINT ( 'NONE',  ( -3000.000000000000000, 0.0000000000000000000, -10.00000000000000000 ) ) ;
#178 = EDGE_CURVE ( 'NONE', #11, #9, #107, .T. ) ;
#179 = EDGE_CURVE ( 'NONE', #17, #9, #118, .T. ) ;
#180 = AXIS2_PLACEMENT_3D ( 'NONE', #239, #242, #243 ) ;
#181 = EDGE_CURVE ( 'NONE', #14, #17, #119, .T. ) ;
#182 = PRODUCT_DEFINITION ( 'UNKNOWN', '', #226, #241 ) ;
#183 = AXIS2_PLACEMENT_3D ( 'NONE', #254, #260, #261 ) ;
#184 = AXIS2_PLACEMENT_3D ( 'NONE', #145, #175, #174 ) ;
#185 = EDGE_CURVE ( 'NONE', #19, #17, #114, .T. ) ;
#186 = AXIS2_PLACEMENT_3D ( 'NONE', #10, #5, #15 ) ;
#187 = AXIS2_PLACEMENT_3D ( 'NONE', #170, #158, #149 ) ;
#188 = AXIS2_PLACEMENT_3D ( 'NONE', #257, #264, #265 ) ;
#189 = EDGE_CURVE ( 'NONE', #8, #7, #138, .T. ) ;
#190 = EDGE_CURVE ( 'NONE', #9, #17, #82, .T. ) ;
#191 = EDGE_CURVE ( 'NONE', #12, #9, #122, .T. ) ;
#192 = AXIS2_PLACEMENT_3D ( 'NONE', #157, #159, #167 ) ;
#193 = AXIS2_PLACEMENT_3D ( 'NONE', #162, #161, #163 ) ;
#194 = EDGE_CURVE ( 'NONE', #8, #12, #95, .T. ) ;
#195 = AXIS2_PLACEMENT_3D ( 'NONE', #164, #154, #166 ) ;
#196 = AXIS2_PLACEMENT_3D ( 'NONE', #150, #156, #168 ) ;
#197 = AXIS2_PLACEMENT_3D ( 'NONE', #245, #252, #253 ) ;
#198 = EDGE_CURVE ( 'NONE', #19, #12, #100, .T. ) ;
#199 = AXIS2_PLACEMENT_3D ( 'NONE', #256, #258, #259 ) ;
#200 = AXIS2_PLACEMENT_3D ( 'NONE', #153, #169, #151 ) ;
#201 = EDGE_CURVE ( 'NONE', #14, #11, #41, .T. ) ;
#202 = AXIS2_PLACEMENT_3D ( 'NONE', #160, #147, #146 ) ;
#203 = APPROVAL ( #173, 'UNSPECIFIED' ) ;
#204 = AXIS2_PLACEMENT_3D ( 'NONE', #34, #32, #165 ) ;
#205 = EDGE_CURVE ( 'NONE', #7, #19, #88, .T. ) ;
#206 = EDGE_CURVE ( 'NONE', #12, #19, #85, .T. ) ;
#207 = EDGE_CURVE ( 'NONE', #11, #14, #76, .T. ) ;
#208 = AXIS2_PLACEMENT_3D ( 'NONE', #248, #250, #251 ) ;
#209 = CC_DESIGN_DATE_AND_TIME_ASSIGNMENT ( #112, #229, ( #182 ) ) ;
#210 = EDGE_CURVE ( 'NONE', #7, #8, #127, .T. ) ;
#211 = CC_DESIGN_PERSON_AND_ORGANIZATION_ASSIGNMENT ( #38, #273, ( #172 ) ) ;
#212 = CC_DESIGN_PERSON_AND_ORGANIZATION_ASSIGNMENT ( #87, #228, ( #182 ) ) ;
#213 = CC_DESIGN_APPROVAL ( #203, ( #182 ) ) ;
#214 = AXIS2_PLACEMENT_3D ( 'NONE', #267, #268, #269 ) ;
#215 = PRODUCT_RELATED_PRODUCT_CATEGORY ( 'detail', '', ( #172 ) ) ;
#216 = CC_DESIGN_SECURITY_CLASSIFICATION ( #221, ( #226 ) ) ;
#217 = CC_DESIGN_APPROVAL ( #218, ( #221 ) ) ;
#218 = APPROVAL ( #237, 'UNSPECIFIED' ) ;
#219 = CC_DESIGN_DATE_AND_TIME_ASSIGNMENT ( #58, #236, ( #221 ) ) ;
#220 = CC_DESIGN_PERSON_AND_ORGANIZATION_ASSIGNMENT ( #71, #235, ( #221 ) ) ;
#221 = SECURITY_CLASSIFICATION ( '', '', #234 ) ;
#222 = CC_DESIGN_PERSON_AND_ORGANIZATION_ASSIGNMENT ( #46, #233, ( #226 ) ) ;
#223 = CC_DESIGN_PERSON_AND_ORGANIZATION_ASSIGNMENT ( #47, #232, ( #226 ) ) ;
#224 = CC_DESIGN_APPROVAL ( #225, ( #226 ) ) ;
#225 = APPROVAL ( #230, 'UNSPECIFIED' ) ;
#226 = PRODUCT_DEFINITION_FORMATION_WITH_SPECIFIED_SOURCE ( 'ANY', '', #172, .NOT_KNOWN. ) ;
#227 = APPROVAL_ROLE ( '' ) ;
#228 = PERSON_AND_ORGANIZATION_ROLE ( 'creator' ) ;
#229 = DATE_TIME_ROLE ( 'creation_date' ) ;
#230 = APPROVAL_STATUS ( 'not_yet_approved' ) ;
#231 = APPROVAL_ROLE ( '' ) ;
#232 = PERSON_AND_ORGANIZATION_ROLE ( 'creator' ) ;
#233 = PERSON_AND_ORGANIZATION_ROLE ( 'design_supplier' ) ;
#234 = SECURITY_CLASSIFICATION_LEVEL ( 'unclassified' ) ;
#235 = PERSON_AND_ORGANIZATION_ROLE ( 'classification_officer' ) ;
#236 = DATE_TIME_ROLE ( 'classification_date' ) ;
#237 = APPROVAL_STATUS ( 'not_yet_approved' ) ;
#238 = APPROVAL_ROLE ( '' ) ;
#239 = CARTESIAN_POINT ( 'NONE',  ( 2999.499999999999500, 0.0000000000000000000, 0.0000000000000000000 ) ) ;
#240 = PRODUCT_DEFINITION_SHAPE ( 'NONE', 'NONE',  #182 ) ;
#241 = DESIGN_CONTEXT ( 'detailed design', #274, 'design' ) ;
#242 = DIRECTION ( 'NONE',  ( -1.000000000000000000, 0.0000000000000000000, 0.0000000000000000000 ) ) ;
#243 = DIRECTION ( 'NONE',  ( 0.0000000000000000000, 0.0000000000000000000, -1.000000000000000000 ) ) ;
#244 = DIRECTION ( 'NONE',  ( 1.000000000000000000, 0.0000000000000000000, 0.0000000000000000000 ) ) ;
#245 = CARTESIAN_POINT ( 'NONE',  ( 3000.000000000000000, 0.0000000000000000000, 0.0000000000000000000 ) ) ;
#246 = CARTESIAN_POINT ( 'NONE',  ( -2999.500000000000900, 1.224646799147353300E-015, 10.00000000000000000 ) ) ;
#247 = DIRECTION ( 'NONE',  ( 0.7071067811867106600, 8.659560562352934800E-017, 0.7071067811863843700 ) ) ;
#248 = CARTESIAN_POINT ( 'NONE',  ( -2999.500000000000900, 0.0000000000000000000, 0.0000000000000000000 ) ) ;
#249 = CARTESIAN_POINT ( 'NONE',  ( -2999.500000000000900, 0.0000000000000000000, -10.00000000000000000 ) ) ;
#250 = DIRECTION ( 'NONE',  ( 1.000000000000000000, -0.0000000000000000000, -0.0000000000000000000 ) ) ;
#251 = DIRECTION ( 'NONE',  ( 0.0000000000000000000, 0.0000000000000000000, -1.000000000000000000 ) ) ;
#252 = DIRECTION ( 'NONE',  ( 1.000000000000000000, 0.0000000000000000000, 0.0000000000000000000 ) ) ;
#253 = DIRECTION ( 'NONE',  ( 0.0000000000000000000, 0.0000000000000000000, -1.000000000000000000 ) ) ;
#254 = CARTESIAN_POINT ( 'NONE',  ( 3000.000000000000000, 0.0000000000000000000, 0.0000000000000000000 ) ) ;
#255 = DIRECTION ( 'NONE',  ( 0.7071067811867106600, 0.0000000000000000000, -0.7071067811863843700 ) ) ;
#256 = CARTESIAN_POINT ( 'NONE',  ( -2999.500000000000900, 0.0000000000000000000, 0.0000000000000000000 ) ) ;
#257 = CARTESIAN_POINT ( 'NONE',  ( -3000.000000000000000, 0.0000000000000000000, 0.0000000000000000000 ) ) ;
#258 = DIRECTION ( 'NONE',  ( 1.000000000000000000, -0.0000000000000000000, -0.0000000000000000000 ) ) ;
#259 = DIRECTION ( 'NONE',  ( 0.0000000000000000000, 0.0000000000000000000, -1.000000000000000000 ) ) ;
#260 = DIRECTION ( 'NONE',  ( 1.000000000000000000, 0.0000000000000000000, 0.0000000000000000000 ) ) ;
#261 = DIRECTION ( 'NONE',  ( 0.0000000000000000000, 0.0000000000000000000, -1.000000000000000000 ) ) ;
#262 =( NAMED_UNIT ( * ) PLANE_ANGLE_UNIT ( ) SI_UNIT ( $, .RADIAN. ) );
#263 =( LENGTH_UNIT ( ) NAMED_UNIT ( * ) SI_UNIT ( .MILLI., .METRE. ) );
#264 = DIRECTION ( 'NONE',  ( -1.000000000000000000, -0.0000000000000000000, -0.0000000000000000000 ) ) ;
#265 = DIRECTION ( 'NONE',  ( 0.0000000000000000000, 0.0000000000000000000, -1.000000000000000000 ) ) ;
#266 =( NAMED_UNIT ( * ) SI_UNIT ( $, .STERADIAN. ) SOLID_ANGLE_UNIT ( ) );
#267 = CARTESIAN_POINT ( 'NONE',  ( 0.0000000000000000000, 0.0000000000000000000, 0.0000000000000000000 ) ) ;
#268 = DIRECTION ( 'NONE',  ( 0.0000000000000000000, 0.0000000000000000000, 1.000000000000000000 ) ) ;
#269 = DIRECTION ( 'NONE',  ( 1.000000000000000000, 0.0000000000000000000, 0.0000000000000000000 ) ) ;
#270 = APPLICATION_CONTEXT ( 'configuration controlled 3d designs of mechanical parts and assemblies' ) ;
#271 = APPLICATION_PROTOCOL_DEFINITION ( 'international standard', 'config_control_design', 1994, #270 ) ;
#272 = MECHANICAL_CONTEXT ( 'NONE', #270, 'mechanical' ) ;
#273 = PERSON_AND_ORGANIZATION_ROLE ( 'design_owner' ) ;
#274 = APPLICATION_CONTEXT ( 'configuration controlled 3d designs of mechanical parts and assemblies' ) ;
#275 = APPLICATION_PROTOCOL_DEFINITION ( 'international standard', 'config_control_design', 1994, #274 ) ;
ENDSEC;
END-ISO-10303-21;
