ISO-10303-21;
HEADER;
FILE_DESCRIPTION (( 'STEP AP203' ),
    '1' );
FILE_NAME ('WRA12.STEP',
    '2014-08-06T09:44:37',
    ( 'Ovidiu Buiga' ),
    ( '' ),
    'SwSTEP 2.0',
    'SolidWorks 2010',
    '' );
FILE_SCHEMA (( 'CONFIG_CONTROL_DESIGN' ));
ENDSEC;

DATA;
#1 = CC_DESIGN_PERSON_AND_ORGANIZATION_ASSIGNMENT ( #120, #224, ( #11 ) ) ;
#2 = CC_DESIGN_DATE_AND_TIME_ASSIGNMENT ( #73, #273, ( #18 ) ) ;
#3 = CC_DESIGN_PERSON_AND_ORGANIZATION_ASSIGNMENT ( #88, #228, ( #4 ) ) ;
#4 = PRODUCT_DEFINITION_FORMATION_WITH_SPECIFIED_SOURCE ( 'ANY', '', #185, .NOT_KNOWN. ) ;
#5 = CC_DESIGN_APPROVAL ( #14, ( #4 ) ) ;
#6 = AXIS2_PLACEMENT_3D ( 'NONE', #207, #206, #203 ) ;
#7 = CC_DESIGN_PERSON_AND_ORGANIZATION_ASSIGNMENT ( #105, #219, ( #185 ) ) ;
#8 = AXIS2_PLACEMENT_3D ( 'NONE', #199, #200, #205 ) ;
#9 = CC_DESIGN_APPROVAL ( #12, ( #11 ) ) ;
#10 = PRODUCT_RELATED_PRODUCT_CATEGORY ( 'detail', '', ( #185 ) ) ;
#11 = PRODUCT_DEFINITION ( 'UNKNOWN', '', #4, #231 ) ;
#12 = APPROVAL ( #222, 'UNSPECIFIED' ) ;
#13 = CC_DESIGN_SECURITY_CLASSIFICATION ( #18, ( #4 ) ) ;
#14 = APPROVAL ( #226, 'UNSPECIFIED' ) ;
#15 = AXIS2_PLACEMENT_3D ( 'NONE', #213, #214, #215 ) ;
#16 = APPROVAL ( #274, 'UNSPECIFIED' ) ;
#17 = CC_DESIGN_PERSON_AND_ORGANIZATION_ASSIGNMENT ( #128, #272, ( #18 ) ) ;
#18 = SECURITY_CLASSIFICATION ( '', '', #47 ) ;
#19 = CC_DESIGN_DATE_AND_TIME_ASSIGNMENT ( #50, #225, ( #11 ) ) ;
#20 = CC_DESIGN_APPROVAL ( #16, ( #18 ) ) ;
#21 = CC_DESIGN_PERSON_AND_ORGANIZATION_ASSIGNMENT ( #126, #229, ( #4 ) ) ;
#22 = VERTEX_POINT ( 'NONE', #41 ) ;
#23 = DIRECTION ( 'NONE',  ( 1.000000000000000000, 0.0000000000000000000, 0.0000000000000000000 ) ) ;
#24 = VERTEX_POINT ( 'NONE', #43 ) ;
#25 = VERTEX_POINT ( 'NONE', #234 ) ;
#26 = CARTESIAN_POINT ( 'NONE',  ( -2999.499999999998600, 0.0000000000000000000, 0.0000000000000000000 ) ) ;
#27 = DIRECTION ( 'NONE',  ( 0.0000000000000000000, 0.0000000000000000000, -1.000000000000000000 ) ) ;
#28 = CARTESIAN_POINT ( 'NONE',  ( 2999.500000000000500, 7.347880794884120700E-016, 6.000000000000000900 ) ) ;
#29 = CARTESIAN_POINT ( 'NONE',  ( 3000.000000000000000, 0.0000000000000000000, 0.0000000000000000000 ) ) ;
#30 = VERTEX_POINT ( 'NONE', #45 ) ;
#31 = DIRECTION ( 'NONE',  ( -1.000000000000000000, -0.0000000000000000000, -0.0000000000000000000 ) ) ;
#32 = DIRECTION ( 'NONE',  ( 0.0000000000000000000, 0.0000000000000000000, -1.000000000000000000 ) ) ;
#33 = DIRECTION ( 'NONE',  ( -1.000000000000000000, -0.0000000000000000000, -0.0000000000000000000 ) ) ;
#34 = CARTESIAN_POINT ( 'NONE',  ( -2999.499999999998600, 7.347880794884120700E-016, 6.000000000000000900 ) ) ;
#35 = CARTESIAN_POINT ( 'NONE',  ( -3000.000000000000000, 0.0000000000000000000, -6.000000000000000900 ) ) ;
#36 = VERTEX_POINT ( 'NONE', #235 ) ;
#37 = CARTESIAN_POINT ( 'NONE',  ( -2999.499999999998600, 0.0000000000000000000, -6.000000000000000900 ) ) ;
#38 = CARTESIAN_POINT ( 'NONE',  ( -3000.000000000000000, 0.0000000000000000000, 0.0000000000000000000 ) ) ;
#39 = VERTEX_POINT ( 'NONE', #28 ) ;
#40 = CARTESIAN_POINT ( 'NONE',  ( -3000.000000000000000, 0.0000000000000000000, 0.0000000000000000000 ) ) ;
#41 = CARTESIAN_POINT ( 'NONE',  ( 3000.000000000000000, 7.041719095097590500E-016, -5.500000000000504500 ) ) ;
#42 = DIRECTION ( 'NONE',  ( 0.7071067811860795000, 0.0000000000000000000, -0.7071067811870154200 ) ) ;
#43 = CARTESIAN_POINT ( 'NONE',  ( -2999.499999999998600, 7.347880794884120700E-016, 6.000000000000000900 ) ) ;
#44 = DIRECTION ( 'NONE',  ( 0.7071067811860795000, 8.659560562360663200E-017, 0.7071067811870154200 ) ) ;
#45 = CARTESIAN_POINT ( 'NONE',  ( 2999.500000000000500, 0.0000000000000000000, -6.000000000000000900 ) ) ;
#46 = CARTESIAN_POINT ( 'NONE',  ( 3000.000000000000000, 0.0000000000000000000, 0.0000000000000000000 ) ) ;
#47 = SECURITY_CLASSIFICATION_LEVEL ( 'unclassified' ) ;
#48 = CIRCLE ( 'NONE', #181, 5.500000000000504500 ) ;
#49 = LINE ( 'NONE', #266, #153 ) ;
#50 = DATE_AND_TIME ( #147, #74 ) ;
#51 = CIRCLE ( 'NONE', #165, 6.000000000000000900 ) ;
#52 = ORIENTED_EDGE ( 'NONE', *, *, #172, .F. ) ;
#53 = CIRCLE ( 'NONE', #176, 6.000000000000000900 ) ;
#54 = ORIENTED_EDGE ( 'NONE', *, *, #167, .F. ) ;
#55 = CIRCLE ( 'NONE', #180, 5.499999999997840000 ) ;
#56 = VECTOR ( 'NONE', #247, 1000.000000000000000 ) ;
#57 = ORIENTED_EDGE ( 'NONE', *, *, #179, .T. ) ;
#58 = LINE ( 'NONE', #35, #64 ) ;
#59 = CALENDAR_DATE ( 2014, 6, 8 ) ;
#60 = DATE_AND_TIME ( #140, #139 ) ;
#61 = VECTOR ( 'NONE', #44, 1000.000000000000100 ) ;
#62 = CONICAL_SURFACE ( 'NONE', #6, 6.000000000000000900, 0.7853981633981099700 ) ;
#63 = LINE ( 'NONE', #37, #80 ) ;
#64 = VECTOR ( 'NONE', #23, 1000.000000000000000 ) ;
#65 = LINE ( 'NONE', #34, #61 ) ;
#66 = ORIENTED_EDGE ( 'NONE', *, *, #186, .T. ) ;
#67 = ORIENTED_EDGE ( 'NONE', *, *, #172, .T. ) ;
#68 = ORIENTED_EDGE ( 'NONE', *, *, #171, .F. ) ;
#69 = ORIENTED_EDGE ( 'NONE', *, *, #170, .T. ) ;
#70 = ORIENTED_EDGE ( 'NONE', *, *, #167, .T. ) ;
#71 = APPROVAL_PERSON_ORGANIZATION ( #83, #14, #227 ) ;
#72 = CLOSED_SHELL ( 'NONE', ( #238, #241, #243, #237, #239, #240, #242, #236 ) ) ;
#73 = DATE_AND_TIME ( #59, #124 ) ;
#74 = LOCAL_TIME ( 12, 44, 37.00000000000000000, #129 ) ;
#75 = ORIENTED_EDGE ( 'NONE', *, *, #183, .T. ) ;
#76 = CONICAL_SURFACE ( 'NONE', #8, 6.000000000000000900, 0.7853981633981099700 ) ;
#77 = CIRCLE ( 'NONE', #184, 5.499999999997840000 ) ;
#78 = ORIENTED_EDGE ( 'NONE', *, *, #183, .F. ) ;
#79 = FACE_OUTER_BOUND ( 'NONE', #101, .T. ) ;
#80 = VECTOR ( 'NONE', #42, 1000.000000000000100 ) ;
#81 = APPROVAL_DATE_TIME ( #150, #12 ) ;
#82 = ORIENTED_EDGE ( 'NONE', *, *, #187, .F. ) ;
#83 = PERSON_AND_ORGANIZATION ( #188, #135 ) ;
#84 = ORIENTED_EDGE ( 'NONE', *, *, #169, .F. ) ;
#85 = CYLINDRICAL_SURFACE ( 'NONE', #160, 6.000000000000000900 ) ;
#86 = APPROVAL_DATE_TIME ( #60, #16 ) ;
#87 = ORIENTED_EDGE ( 'NONE', *, *, #182, .F. ) ;
#88 = PERSON_AND_ORGANIZATION ( #188, #135 ) ;
#89 = DATE_AND_TIME ( #98, #121 ) ;
#90 = APPROVAL_DATE_TIME ( #89, #14 ) ;
#91 = PERSON_AND_ORGANIZATION ( #188, #135 ) ;
#92 = ORIENTED_EDGE ( 'NONE', *, *, #168, .T. ) ;
#93 = ORIENTED_EDGE ( 'NONE', *, *, #162, .F. ) ;
#94 = ORIENTED_EDGE ( 'NONE', *, *, #179, .F. ) ;
#95 = ORIENTED_EDGE ( 'NONE', *, *, #182, .T. ) ;
#96 = FACE_OUTER_BOUND ( 'NONE', #108, .T. ) ;
#97 = ORIENTED_EDGE ( 'NONE', *, *, #171, .T. ) ;
#98 = CALENDAR_DATE ( 2014, 6, 8 ) ;
#99 = ORIENTED_EDGE ( 'NONE', *, *, #163, .T. ) ;
#100 = ORIENTED_EDGE ( 'NONE', *, *, #186, .F. ) ;
#101 = EDGE_LOOP ( 'NONE', ( #97, #57 ) ) ;
#102 = EDGE_LOOP ( 'NONE', ( #84, #70, #82, #143 ) ) ;
#103 = FACE_OUTER_BOUND ( 'NONE', #116, .T. ) ;
#104 = ORIENTED_EDGE ( 'NONE', *, *, #189, .T. ) ;
#105 = PERSON_AND_ORGANIZATION ( #188, #135 ) ;
#106 = SHAPE_DEFINITION_REPRESENTATION ( #230, #191 ) ;
#107 = FACE_OUTER_BOUND ( 'NONE', #122, .T. ) ;
#108 = EDGE_LOOP ( 'NONE', ( #78, #69, #99, #67 ) ) ;
#109 = EDGE_LOOP ( 'NONE', ( #145, #154 ) ) ;
#110 = ORIENTED_EDGE ( 'NONE', *, *, #170, .F. ) ;
#111 = ORIENTED_EDGE ( 'NONE', *, *, #163, .F. ) ;
#112 = APPROVAL_PERSON_ORGANIZATION ( #91, #12, #223 ) ;
#113 = FACE_OUTER_BOUND ( 'NONE', #102, .T. ) ;
#114 = CONICAL_SURFACE ( 'NONE', #166, 5.500000000000504500, 0.7853981633972220200 ) ;
#115 = CYLINDRICAL_SURFACE ( 'NONE', #161, 6.000000000000000900 ) ;
#116 = EDGE_LOOP ( 'NONE', ( #94, #104, #87, #100 ) ) ;
#117 = FACE_OUTER_BOUND ( 'NONE', #155, .T. ) ;
#118 = CONICAL_SURFACE ( 'NONE', #164, 5.500000000000504500, 0.7853981633972220200 ) ;
#119 = FACE_OUTER_BOUND ( 'NONE', #130, .T. ) ;
#120 = PERSON_AND_ORGANIZATION ( #188, #135 ) ;
#121 = LOCAL_TIME ( 12, 44, 37.00000000000000000, #144 ) ;
#122 = EDGE_LOOP ( 'NONE', ( #131, #68, #66, #52 ) ) ;
#123 = CIRCLE ( 'NONE', #175, 6.000000000000000900 ) ;
#124 = LOCAL_TIME ( 12, 44, 37.00000000000000000, #125 ) ;
#125 = COORDINATED_UNIVERSAL_TIME_OFFSET ( 2, 0, .AHEAD. ) ;
#126 = PERSON_AND_ORGANIZATION ( #188, #135 ) ;
#127 =( GEOMETRIC_REPRESENTATION_CONTEXT ( 3 ) GLOBAL_UNCERTAINTY_ASSIGNED_CONTEXT ( ( #190 ) ) GLOBAL_UNIT_ASSIGNED_CONTEXT ( ( #208, #211, #212 ) ) REPRESENTATION_CONTEXT ( 'NONE', 'WORKASPACE' ) );
#128 = PERSON_AND_ORGANIZATION ( #188, #135 ) ;
#129 = COORDINATED_UNIVERSAL_TIME_OFFSET ( 2, 0, .AHEAD. ) ;
#130 = EDGE_LOOP ( 'NONE', ( #136, #75, #95, #111 ) ) ;
#131 = ORIENTED_EDGE ( 'NONE', *, *, #189, .F. ) ;
#132 = CIRCLE ( 'NONE', #178, 5.500000000000504500 ) ;
#133 = PERSON_AND_ORGANIZATION ( #188, #135 ) ;
#134 = APPROVAL_PERSON_ORGANIZATION ( #133, #16, #275 ) ;
#135 = ORGANIZATION ( 'UNSPECIFIED', 'UNSPECIFIED', '' ) ;
#136 = ORIENTED_EDGE ( 'NONE', *, *, #187, .T. ) ;
#137 = COORDINATED_UNIVERSAL_TIME_OFFSET ( 2, 0, .AHEAD. ) ;
#138 = VECTOR ( 'NONE', #260, 1000.000000000000000 ) ;
#139 = LOCAL_TIME ( 12, 44, 37.00000000000000000, #137 ) ;
#140 = CALENDAR_DATE ( 2014, 6, 8 ) ;
#141 = LINE ( 'NONE', #249, #138 ) ;
#142 = FACE_OUTER_BOUND ( 'NONE', #109, .T. ) ;
#143 = ORIENTED_EDGE ( 'NONE', *, *, #168, .F. ) ;
#144 = COORDINATED_UNIVERSAL_TIME_OFFSET ( 2, 0, .AHEAD. ) ;
#145 = ORIENTED_EDGE ( 'NONE', *, *, #162, .T. ) ;
#146 = CIRCLE ( 'NONE', #174, 6.000000000000000900 ) ;
#147 = CALENDAR_DATE ( 2014, 6, 8 ) ;
#148 = COORDINATED_UNIVERSAL_TIME_OFFSET ( 2, 0, .AHEAD. ) ;
#149 = LOCAL_TIME ( 12, 44, 37.00000000000000000, #148 ) ;
#150 = DATE_AND_TIME ( #152, #149 ) ;
#151 = LINE ( 'NONE', #251, #56 ) ;
#152 = CALENDAR_DATE ( 2014, 6, 8 ) ;
#153 = VECTOR ( 'NONE', #257, 1000.000000000000000 ) ;
#154 = ORIENTED_EDGE ( 'NONE', *, *, #169, .T. ) ;
#155 = EDGE_LOOP ( 'NONE', ( #54, #93, #92, #110 ) ) ;
#156 = CARTESIAN_POINT ( 'NONE',  ( 3000.000000000000000, 0.0000000000000000000, 0.0000000000000000000 ) ) ;
#157 = CARTESIAN_POINT ( 'NONE',  ( -2999.499999999998600, 0.0000000000000000000, -6.000000000000000900 ) ) ;
#158 = DIRECTION ( 'NONE',  ( -1.000000000000000000, 0.0000000000000000000, 0.0000000000000000000 ) ) ;
#159 = DIRECTION ( 'NONE',  ( 0.0000000000000000000, 0.0000000000000000000, 1.000000000000000000 ) ) ;
#160 = AXIS2_PLACEMENT_3D ( 'NONE', #210, #209, #204 ) ;
#161 = AXIS2_PLACEMENT_3D ( 'NONE', #270, #269, #271 ) ;
#162 = EDGE_CURVE ( 'NONE', #232, #36, #77, .T. ) ;
#163 = EDGE_CURVE ( 'NONE', #233, #30, #58, .T. ) ;
#164 = AXIS2_PLACEMENT_3D ( 'NONE', #46, #250, #253 ) ;
#165 = AXIS2_PLACEMENT_3D ( 'NONE', #245, #244, #246 ) ;
#166 = AXIS2_PLACEMENT_3D ( 'NONE', #156, #158, #159 ) ;
#167 = EDGE_CURVE ( 'NONE', #36, #24, #65, .T. ) ;
#168 = EDGE_CURVE ( 'NONE', #232, #233, #63, .T. ) ;
#169 = EDGE_CURVE ( 'NONE', #36, #232, #55, .T. ) ;
#170 = EDGE_CURVE ( 'NONE', #24, #233, #53, .T. ) ;
#171 = EDGE_CURVE ( 'NONE', #25, #22, #48, .T. ) ;
#172 = EDGE_CURVE ( 'NONE', #30, #39, #51, .T. ) ;
#173 = AXIS2_PLACEMENT_3D ( 'NONE', #196, #197, #198 ) ;
#174 = AXIS2_PLACEMENT_3D ( 'NONE', #258, #252, #264 ) ;
#175 = AXIS2_PLACEMENT_3D ( 'NONE', #268, #263, #254 ) ;
#176 = AXIS2_PLACEMENT_3D ( 'NONE', #26, #261, #255 ) ;
#177 = AXIS2_PLACEMENT_3D ( 'NONE', #194, #201, #202 ) ;
#178 = AXIS2_PLACEMENT_3D ( 'NONE', #259, #267, #262 ) ;
#179 = EDGE_CURVE ( 'NONE', #22, #25, #132, .T. ) ;
#180 = AXIS2_PLACEMENT_3D ( 'NONE', #38, #33, #27 ) ;
#181 = AXIS2_PLACEMENT_3D ( 'NONE', #29, #248, #256 ) ;
#182 = EDGE_CURVE ( 'NONE', #39, #30, #146, .T. ) ;
#183 = EDGE_CURVE ( 'NONE', #24, #39, #151, .T. ) ;
#184 = AXIS2_PLACEMENT_3D ( 'NONE', #40, #31, #32 ) ;
#185 = PRODUCT ( 'WRA12', 'WRA12', '', ( #218 ) ) ;
#186 = EDGE_CURVE ( 'NONE', #25, #39, #141, .T. ) ;
#187 = EDGE_CURVE ( 'NONE', #233, #24, #123, .T. ) ;
#188 = PERSON ( 'UNSPECIFIED', 'UNSPECIFIED', 'UNSPECIFIED', ('UNSPECIFIED'), ('UNSPECIFIED'), ('UNSPECIFIED') ) ;
#189 = EDGE_CURVE ( 'NONE', #22, #30, #49, .T. ) ;
#190 = UNCERTAINTY_MEASURE_WITH_UNIT (LENGTH_MEASURE( 1.000000000000000100E-005 ), #208, 'distance_accuracy_value', 'NONE');
#191 = ADVANCED_BREP_SHAPE_REPRESENTATION ( 'WRA12', ( #192, #15 ), #127 ) ;
#192 = MANIFOLD_SOLID_BREP ( 'Chamfer1', #72 ) ;
#193 = PLANE ( 'NONE',  #173 ) ;
#194 = CARTESIAN_POINT ( 'NONE',  ( 3000.000000000000000, 0.0000000000000000000, 0.0000000000000000000 ) ) ;
#195 = PLANE ( 'NONE',  #177 ) ;
#196 = CARTESIAN_POINT ( 'NONE',  ( -3000.000000000000000, 0.0000000000000000000, 0.0000000000000000000 ) ) ;
#197 = DIRECTION ( 'NONE',  ( 1.000000000000000000, 0.0000000000000000000, 0.0000000000000000000 ) ) ;
#198 = DIRECTION ( 'NONE',  ( 0.0000000000000000000, 0.0000000000000000000, -1.000000000000000000 ) ) ;
#199 = CARTESIAN_POINT ( 'NONE',  ( -2999.499999999998600, 0.0000000000000000000, 0.0000000000000000000 ) ) ;
#200 = DIRECTION ( 'NONE',  ( 1.000000000000000000, -0.0000000000000000000, -0.0000000000000000000 ) ) ;
#201 = DIRECTION ( 'NONE',  ( 1.000000000000000000, 0.0000000000000000000, 0.0000000000000000000 ) ) ;
#202 = DIRECTION ( 'NONE',  ( 0.0000000000000000000, 0.0000000000000000000, -1.000000000000000000 ) ) ;
#203 = DIRECTION ( 'NONE',  ( 0.0000000000000000000, 0.0000000000000000000, -1.000000000000000000 ) ) ;
#204 = DIRECTION ( 'NONE',  ( 0.0000000000000000000, 0.0000000000000000000, -1.000000000000000000 ) ) ;
#205 = DIRECTION ( 'NONE',  ( 0.0000000000000000000, 0.0000000000000000000, -1.000000000000000000 ) ) ;
#206 = DIRECTION ( 'NONE',  ( 1.000000000000000000, -0.0000000000000000000, -0.0000000000000000000 ) ) ;
#207 = CARTESIAN_POINT ( 'NONE',  ( -2999.499999999998600, 0.0000000000000000000, 0.0000000000000000000 ) ) ;
#208 =( LENGTH_UNIT ( ) NAMED_UNIT ( * ) SI_UNIT ( .MILLI., .METRE. ) );
#209 = DIRECTION ( 'NONE',  ( 1.000000000000000000, 0.0000000000000000000, 0.0000000000000000000 ) ) ;
#210 = CARTESIAN_POINT ( 'NONE',  ( -3000.000000000000000, 0.0000000000000000000, 0.0000000000000000000 ) ) ;
#211 =( NAMED_UNIT ( * ) PLANE_ANGLE_UNIT ( ) SI_UNIT ( $, .RADIAN. ) );
#212 =( NAMED_UNIT ( * ) SI_UNIT ( $, .STERADIAN. ) SOLID_ANGLE_UNIT ( ) );
#213 = CARTESIAN_POINT ( 'NONE',  ( 0.0000000000000000000, 0.0000000000000000000, 0.0000000000000000000 ) ) ;
#214 = DIRECTION ( 'NONE',  ( 0.0000000000000000000, 0.0000000000000000000, 1.000000000000000000 ) ) ;
#215 = DIRECTION ( 'NONE',  ( 1.000000000000000000, 0.0000000000000000000, 0.0000000000000000000 ) ) ;
#216 = APPLICATION_CONTEXT ( 'configuration controlled 3d designs of mechanical parts and assemblies' ) ;
#217 = APPLICATION_PROTOCOL_DEFINITION ( 'international standard', 'config_control_design', 1994, #216 ) ;
#218 = MECHANICAL_CONTEXT ( 'NONE', #216, 'mechanical' ) ;
#219 = PERSON_AND_ORGANIZATION_ROLE ( 'design_owner' ) ;
#220 = APPLICATION_CONTEXT ( 'configuration controlled 3d designs of mechanical parts and assemblies' ) ;
#221 = APPLICATION_PROTOCOL_DEFINITION ( 'international standard', 'config_control_design', 1994, #220 ) ;
#222 = APPROVAL_STATUS ( 'not_yet_approved' ) ;
#223 = APPROVAL_ROLE ( '' ) ;
#224 = PERSON_AND_ORGANIZATION_ROLE ( 'creator' ) ;
#225 = DATE_TIME_ROLE ( 'creation_date' ) ;
#226 = APPROVAL_STATUS ( 'not_yet_approved' ) ;
#227 = APPROVAL_ROLE ( '' ) ;
#228 = PERSON_AND_ORGANIZATION_ROLE ( 'creator' ) ;
#229 = PERSON_AND_ORGANIZATION_ROLE ( 'design_supplier' ) ;
#230 = PRODUCT_DEFINITION_SHAPE ( 'NONE', 'NONE',  #11 ) ;
#231 = DESIGN_CONTEXT ( 'detailed design', #220, 'design' ) ;
#232 = VERTEX_POINT ( 'NONE', #265 ) ;
#233 = VERTEX_POINT ( 'NONE', #157 ) ;
#234 = CARTESIAN_POINT ( 'NONE',  ( 3000.000000000000000, 0.0000000000000000000, 5.500000000000504500 ) ) ;
#235 = CARTESIAN_POINT ( 'NONE',  ( -3000.000000000000000, 7.041719095095958600E-016, 5.499999999997840000 ) ) ;
#236 = ADVANCED_FACE ( 'NONE', ( #107 ), #114, .T. ) ;
#237 = ADVANCED_FACE ( 'NONE', ( #96 ), #115, .T. ) ;
#238 = ADVANCED_FACE ( 'NONE', ( #103 ), #118, .T. ) ;
#239 = ADVANCED_FACE ( 'NONE', ( #142 ), #193, .F. ) ;
#240 = ADVANCED_FACE ( 'NONE', ( #79 ), #195, .T. ) ;
#241 = ADVANCED_FACE ( 'NONE', ( #113 ), #76, .T. ) ;
#242 = ADVANCED_FACE ( 'NONE', ( #117 ), #62, .T. ) ;
#243 = ADVANCED_FACE ( 'NONE', ( #119 ), #85, .T. ) ;
#244 = DIRECTION ( 'NONE',  ( -1.000000000000000000, 0.0000000000000000000, 0.0000000000000000000 ) ) ;
#245 = CARTESIAN_POINT ( 'NONE',  ( 2999.500000000000500, 0.0000000000000000000, 0.0000000000000000000 ) ) ;
#246 = DIRECTION ( 'NONE',  ( 0.0000000000000000000, 0.0000000000000000000, -1.000000000000000000 ) ) ;
#247 = DIRECTION ( 'NONE',  ( 1.000000000000000000, 0.0000000000000000000, 0.0000000000000000000 ) ) ;
#248 = DIRECTION ( 'NONE',  ( 1.000000000000000000, 0.0000000000000000000, 0.0000000000000000000 ) ) ;
#249 = CARTESIAN_POINT ( 'NONE',  ( 3000.000000000000000, 0.0000000000000000000, 5.500000000000504500 ) ) ;
#250 = DIRECTION ( 'NONE',  ( -1.000000000000000000, 0.0000000000000000000, 0.0000000000000000000 ) ) ;
#251 = CARTESIAN_POINT ( 'NONE',  ( -3000.000000000000000, 7.347880794884120700E-016, 6.000000000000000900 ) ) ;
#252 = DIRECTION ( 'NONE',  ( -1.000000000000000000, 0.0000000000000000000, 0.0000000000000000000 ) ) ;
#253 = DIRECTION ( 'NONE',  ( 0.0000000000000000000, 0.0000000000000000000, 1.000000000000000000 ) ) ;
#254 = DIRECTION ( 'NONE',  ( 0.0000000000000000000, 0.0000000000000000000, -1.000000000000000000 ) ) ;
#255 = DIRECTION ( 'NONE',  ( 0.0000000000000000000, 0.0000000000000000000, -1.000000000000000000 ) ) ;
#256 = DIRECTION ( 'NONE',  ( 0.0000000000000000000, 0.0000000000000000000, -1.000000000000000000 ) ) ;
#257 = DIRECTION ( 'NONE',  ( -0.7071067811867075600, 8.659560562352973000E-017, -0.7071067811863874800 ) ) ;
#258 = CARTESIAN_POINT ( 'NONE',  ( 2999.500000000000500, 0.0000000000000000000, 0.0000000000000000000 ) ) ;
#259 = CARTESIAN_POINT ( 'NONE',  ( 3000.000000000000000, 0.0000000000000000000, 0.0000000000000000000 ) ) ;
#260 = DIRECTION ( 'NONE',  ( -0.7071067811867075600, 0.0000000000000000000, 0.7071067811863874800 ) ) ;
#261 = DIRECTION ( 'NONE',  ( 1.000000000000000000, -0.0000000000000000000, -0.0000000000000000000 ) ) ;
#262 = DIRECTION ( 'NONE',  ( 0.0000000000000000000, 0.0000000000000000000, -1.000000000000000000 ) ) ;
#263 = DIRECTION ( 'NONE',  ( 1.000000000000000000, -0.0000000000000000000, -0.0000000000000000000 ) ) ;
#264 = DIRECTION ( 'NONE',  ( 0.0000000000000000000, 0.0000000000000000000, -1.000000000000000000 ) ) ;
#265 = CARTESIAN_POINT ( 'NONE',  ( -3000.000000000000000, 0.0000000000000000000, -5.499999999997840000 ) ) ;
#266 = CARTESIAN_POINT ( 'NONE',  ( 3000.000000000000000, 6.735557395311060300E-016, -5.500000000000504500 ) ) ;
#267 = DIRECTION ( 'NONE',  ( 1.000000000000000000, 0.0000000000000000000, 0.0000000000000000000 ) ) ;
#268 = CARTESIAN_POINT ( 'NONE',  ( -2999.499999999998600, 0.0000000000000000000, 0.0000000000000000000 ) ) ;
#269 = DIRECTION ( 'NONE',  ( 1.000000000000000000, 0.0000000000000000000, 0.0000000000000000000 ) ) ;
#270 = CARTESIAN_POINT ( 'NONE',  ( -3000.000000000000000, 0.0000000000000000000, 0.0000000000000000000 ) ) ;
#271 = DIRECTION ( 'NONE',  ( 0.0000000000000000000, 0.0000000000000000000, -1.000000000000000000 ) ) ;
#272 = PERSON_AND_ORGANIZATION_ROLE ( 'classification_officer' ) ;
#273 = DATE_TIME_ROLE ( 'classification_date' ) ;
#274 = APPROVAL_STATUS ( 'not_yet_approved' ) ;
#275 = APPROVAL_ROLE ( '' ) ;
ENDSEC;
END-ISO-10303-21;
