ISO-10303-21;
HEADER;
FILE_DESCRIPTION (( 'STEP AP203' ),
    '1' );
FILE_NAME ('WRA10.STEP',
    '2014-08-06T09:43:49',
    ( 'Ovidiu Buiga' ),
    ( '' ),
    'SwSTEP 2.0',
    'SolidWorks 2010',
    '' );
FILE_SCHEMA (( 'CONFIG_CONTROL_DESIGN' ));
ENDSEC;

DATA;
#1 = DIRECTION ( 'NONE',  ( 0.0000000000000000000, 0.0000000000000000000, -1.000000000000000000 ) ) ;
#2 = CARTESIAN_POINT ( 'NONE',  ( -2999.500000000002300, 0.0000000000000000000, 0.0000000000000000000 ) ) ;
#3 = DIRECTION ( 'NONE',  ( -1.000000000000000000, 0.0000000000000000000, 0.0000000000000000000 ) ) ;
#4 = CARTESIAN_POINT ( 'NONE',  ( 3000.000000000000000, 0.0000000000000000000, 0.0000000000000000000 ) ) ;
#5 = CARTESIAN_POINT ( 'NONE',  ( -3000.000000000000000, 0.0000000000000000000, 0.0000000000000000000 ) ) ;
#6 = DIRECTION ( 'NONE',  ( -1.000000000000000000, 0.0000000000000000000, 0.0000000000000000000 ) ) ;
#7 = CARTESIAN_POINT ( 'NONE',  ( 3000.000000000000000, 0.0000000000000000000, 0.0000000000000000000 ) ) ;
#8 = PLANE ( 'NONE',  #249 ) ;
#9 = DIRECTION ( 'NONE',  ( 0.0000000000000000000, 0.0000000000000000000, -1.000000000000000000 ) ) ;
#10 = DIRECTION ( 'NONE',  ( 1.000000000000000000, 0.0000000000000000000, 0.0000000000000000000 ) ) ;
#11 = CARTESIAN_POINT ( 'NONE',  ( 3000.000000000000000, 0.0000000000000000000, 0.0000000000000000000 ) ) ;
#12 = DIRECTION ( 'NONE',  ( 0.0000000000000000000, 0.0000000000000000000, -1.000000000000000000 ) ) ;
#13 = DIRECTION ( 'NONE',  ( 0.0000000000000000000, 0.0000000000000000000, -1.000000000000000000 ) ) ;
#14 = CARTESIAN_POINT ( 'NONE',  ( -3000.000000000000000, 0.0000000000000000000, 0.0000000000000000000 ) ) ;
#15 = CARTESIAN_POINT ( 'NONE',  ( 3000.000000000000000, 0.0000000000000000000, 4.500000000000170500 ) ) ;
#16 = DIRECTION ( 'NONE',  ( 1.000000000000000000, 0.0000000000000000000, 0.0000000000000000000 ) ) ;
#17 = DIRECTION ( 'NONE',  ( 0.0000000000000000000, 0.0000000000000000000, -1.000000000000000000 ) ) ;
#18 = DIRECTION ( 'NONE',  ( 1.000000000000000000, 0.0000000000000000000, 0.0000000000000000000 ) ) ;
#19 = DIRECTION ( 'NONE',  ( 0.0000000000000000000, 0.0000000000000000000, 1.000000000000000000 ) ) ;
#20 = DIRECTION ( 'NONE',  ( 0.0000000000000000000, 0.0000000000000000000, 1.000000000000000000 ) ) ;
#21 = DIRECTION ( 'NONE',  ( 1.000000000000000000, 0.0000000000000000000, 0.0000000000000000000 ) ) ;
#22 = CARTESIAN_POINT ( 'NONE',  ( -2999.500000000002300, 0.0000000000000000000, 0.0000000000000000000 ) ) ;
#23 = DIRECTION ( 'NONE',  ( 1.000000000000000000, -0.0000000000000000000, -0.0000000000000000000 ) ) ;
#24 = DIRECTION ( 'NONE',  ( -0.7071067811864720800, 8.659560562355857300E-017, -0.7071067811866229600 ) ) ;
#25 = CARTESIAN_POINT ( 'NONE',  ( -3000.000000000000000, 0.0000000000000000000, -5.000000000000000000 ) ) ;
#26 = CARTESIAN_POINT ( 'NONE',  ( 3000.000000000000000, 0.0000000000000000000, 0.0000000000000000000 ) ) ;
#27 = DIRECTION ( 'NONE',  ( 1.000000000000000000, -0.0000000000000000000, -0.0000000000000000000 ) ) ;
#28 = CARTESIAN_POINT ( 'NONE',  ( -3000.000000000000000, 0.0000000000000000000, 0.0000000000000000000 ) ) ;
#29 = CARTESIAN_POINT ( 'NONE',  ( 3000.000000000000000, 5.510910596163298600E-016, -4.500000000000170500 ) ) ;
#30 = DIRECTION ( 'NONE',  ( 1.000000000000000000, -0.0000000000000000000, -0.0000000000000000000 ) ) ;
#31 = CARTESIAN_POINT ( 'NONE',  ( 2999.500000000000500, 0.0000000000000000000, 0.0000000000000000000 ) ) ;
#32 = DIRECTION ( 'NONE',  ( 0.0000000000000000000, 0.0000000000000000000, -1.000000000000000000 ) ) ;
#33 = DIRECTION ( 'NONE',  ( -1.000000000000000000, 0.0000000000000000000, 0.0000000000000000000 ) ) ;
#34 = DIRECTION ( 'NONE',  ( 1.000000000000000000, 0.0000000000000000000, 0.0000000000000000000 ) ) ;
#35 = DIRECTION ( 'NONE',  ( 0.7071067811858441400, 0.0000000000000000000, -0.7071067811872510100 ) ) ;
#36 = DIRECTION ( 'NONE',  ( 0.0000000000000000000, 0.0000000000000000000, -1.000000000000000000 ) ) ;
#37 = DIRECTION ( 'NONE',  ( 0.0000000000000000000, 0.0000000000000000000, -1.000000000000000000 ) ) ;
#38 = DIRECTION ( 'NONE',  ( -1.000000000000000000, -0.0000000000000000000, -0.0000000000000000000 ) ) ;
#39 = DIRECTION ( 'NONE',  ( 0.0000000000000000000, 0.0000000000000000000, -1.000000000000000000 ) ) ;
#40 = DIRECTION ( 'NONE',  ( -0.7071067811864720800, 0.0000000000000000000, 0.7071067811866229600 ) ) ;
#41 = CARTESIAN_POINT ( 'NONE',  ( -3000.000000000000000, 6.123233995736766300E-016, 5.000000000000000000 ) ) ;
#42 = CARTESIAN_POINT ( 'NONE',  ( -2999.500000000002300, 0.0000000000000000000, 0.0000000000000000000 ) ) ;
#43 = CARTESIAN_POINT ( 'NONE',  ( -2999.500000000002300, 0.0000000000000000000, -5.000000000000000000 ) ) ;
#44 = DIRECTION ( 'NONE',  ( 1.000000000000000000, 0.0000000000000000000, 0.0000000000000000000 ) ) ;
#45 = ADVANCED_BREP_SHAPE_REPRESENTATION ( 'WRA10', ( #47, #248 ), #158 ) ;
#46 = UNCERTAINTY_MEASURE_WITH_UNIT (LENGTH_MEASURE( 1.000000000000000100E-005 ), #218, 'distance_accuracy_value', 'NONE');
#47 = MANIFOLD_SOLID_BREP ( 'Chamfer1', #96 ) ;
#48 = APPLICATION_CONTEXT ( 'configuration controlled 3d designs of mechanical parts and assemblies' ) ;
#49 = APPLICATION_PROTOCOL_DEFINITION ( 'international standard', 'config_control_design', 1994, #48 ) ;
#50 = MECHANICAL_CONTEXT ( 'NONE', #48, 'mechanical' ) ;
#51 = PERSON_AND_ORGANIZATION_ROLE ( 'design_owner' ) ;
#52 = APPLICATION_CONTEXT ( 'configuration controlled 3d designs of mechanical parts and assemblies' ) ;
#53 = APPLICATION_PROTOCOL_DEFINITION ( 'international standard', 'config_control_design', 1994, #52 ) ;
#54 = APPROVAL_STATUS ( 'not_yet_approved' ) ;
#55 = APPROVAL_ROLE ( '' ) ;
#56 = PERSON_AND_ORGANIZATION_ROLE ( 'creator' ) ;
#57 = DATE_TIME_ROLE ( 'creation_date' ) ;
#58 = APPROVAL_STATUS ( 'not_yet_approved' ) ;
#59 = APPROVAL_ROLE ( '' ) ;
#60 = PERSON_AND_ORGANIZATION_ROLE ( 'creator' ) ;
#61 = PERSON_AND_ORGANIZATION_ROLE ( 'design_supplier' ) ;
#62 = SECURITY_CLASSIFICATION_LEVEL ( 'unclassified' ) ;
#63 = PERSON_AND_ORGANIZATION_ROLE ( 'classification_officer' ) ;
#64 = DATE_TIME_ROLE ( 'classification_date' ) ;
#65 = APPROVAL_STATUS ( 'not_yet_approved' ) ;
#66 = APPROVAL_ROLE ( '' ) ;
#67 = DIRECTION ( 'NONE',  ( 0.0000000000000000000, 0.0000000000000000000, -1.000000000000000000 ) ) ;
#68 = CARTESIAN_POINT ( 'NONE',  ( 2999.500000000000500, 0.0000000000000000000, -5.000000000000000000 ) ) ;
#69 = CARTESIAN_POINT ( 'NONE',  ( 3000.000000000000000, 5.817072295950031900E-016, -4.500000000000170500 ) ) ;
#70 = CARTESIAN_POINT ( 'NONE',  ( -3000.000000000000000, 5.817072295950575300E-016, 4.500000000001058700 ) ) ;
#71 = CARTESIAN_POINT ( 'NONE',  ( -2999.500000000002300, 0.0000000000000000000, 0.0000000000000000000 ) ) ;
#72 = VERTEX_POINT ( 'NONE', #82 ) ;
#73 = CARTESIAN_POINT ( 'NONE',  ( -3000.000000000000000, 0.0000000000000000000, -4.500000000001058700 ) ) ;
#74 = VERTEX_POINT ( 'NONE', #75 ) ;
#75 = CARTESIAN_POINT ( 'NONE',  ( -2999.500000000002300, 6.123233995736766300E-016, 5.000000000000000000 ) ) ;
#76 = VERTEX_POINT ( 'NONE', #80 ) ;
#77 = VERTEX_POINT ( 'NONE', #70 ) ;
#78 = VERTEX_POINT ( 'NONE', #85 ) ;
#79 = CARTESIAN_POINT ( 'NONE',  ( -3000.000000000000000, 0.0000000000000000000, 0.0000000000000000000 ) ) ;
#80 = CARTESIAN_POINT ( 'NONE',  ( -2999.500000000002300, 0.0000000000000000000, -5.000000000000000000 ) ) ;
#81 = DIRECTION ( 'NONE',  ( 1.000000000000000000, -0.0000000000000000000, -0.0000000000000000000 ) ) ;
#82 = CARTESIAN_POINT ( 'NONE',  ( 3000.000000000000000, 0.0000000000000000000, 4.500000000000170500 ) ) ;
#83 = VERTEX_POINT ( 'NONE', #68 ) ;
#84 = VERTEX_POINT ( 'NONE', #69 ) ;
#85 = CARTESIAN_POINT ( 'NONE',  ( 2999.500000000000500, 6.123233995736766300E-016, 5.000000000000000000 ) ) ;
#86 = PLANE ( 'NONE',  #252 ) ;
#87 = VERTEX_POINT ( 'NONE', #73 ) ;
#88 = EDGE_LOOP ( 'NONE', ( #91, #89, #109, #95 ) ) ;
#89 = ORIENTED_EDGE ( 'NONE', *, *, #264, .F. ) ;
#90 = VECTOR ( 'NONE', #211, 1000.000000000000100 ) ;
#91 = ORIENTED_EDGE ( 'NONE', *, *, #258, .F. ) ;
#92 = EDGE_LOOP ( 'NONE', ( #166, #185, #182, #171 ) ) ;
#93 = LINE ( 'NONE', #213, #90 ) ;
#94 = ORIENTED_EDGE ( 'NONE', *, *, #227, .F. ) ;
#95 = ORIENTED_EDGE ( 'NONE', *, *, #253, .F. ) ;
#96 = CLOSED_SHELL ( 'NONE', ( #206, #200, #203, #207, #202, #205, #201, #204 ) ) ;
#97 = APPROVAL_DATE_TIME ( #98, #273 ) ;
#98 = DATE_AND_TIME ( #100, #101 ) ;
#99 = EDGE_LOOP ( 'NONE', ( #167, #173, #170, #172 ) ) ;
#100 = CALENDAR_DATE ( 2014, 6, 8 ) ;
#101 = LOCAL_TIME ( 12, 43, 49.00000000000000000, #104 ) ;
#102 = PERSON_AND_ORGANIZATION ( #196, #161 ) ;
#103 = CIRCLE ( 'NONE', #246, 5.000000000000000000 ) ;
#104 = COORDINATED_UNIVERSAL_TIME_OFFSET ( 2, 0, .AHEAD. ) ;
#105 = APPROVAL_PERSON_ORGANIZATION ( #102, #273, #66 ) ;
#106 = CALENDAR_DATE ( 2014, 6, 8 ) ;
#107 = LOCAL_TIME ( 12, 43, 49.00000000000000000, #111 ) ;
#108 = DATE_AND_TIME ( #106, #107 ) ;
#109 = ORIENTED_EDGE ( 'NONE', *, *, #244, .T. ) ;
#110 = ORIENTED_EDGE ( 'NONE', *, *, #261, .T. ) ;
#111 = COORDINATED_UNIVERSAL_TIME_OFFSET ( 2, 0, .AHEAD. ) ;
#112 = FACE_OUTER_BOUND ( 'NONE', #92, .T. ) ;
#113 = PERSON_AND_ORGANIZATION ( #196, #161 ) ;
#114 = EDGE_LOOP ( 'NONE', ( #195, #194, #153, #94 ) ) ;
#115 = PERSON_AND_ORGANIZATION ( #196, #161 ) ;
#116 = PERSON_AND_ORGANIZATION ( #196, #161 ) ;
#117 = EDGE_LOOP ( 'NONE', ( #187, #186 ) ) ;
#118 = EDGE_LOOP ( 'NONE', ( #180, #174, #175, #183 ) ) ;
#119 = APPROVAL_DATE_TIME ( #120, #266 ) ;
#120 = DATE_AND_TIME ( #121, #123 ) ;
#121 = CALENDAR_DATE ( 2014, 6, 8 ) ;
#122 = CIRCLE ( 'NONE', #232, 4.500000000000170500 ) ;
#123 = LOCAL_TIME ( 12, 43, 49.00000000000000000, #124 ) ;
#124 = COORDINATED_UNIVERSAL_TIME_OFFSET ( 2, 0, .AHEAD. ) ;
#125 = APPROVAL_PERSON_ORGANIZATION ( #127, #266, #59 ) ;
#126 = EDGE_LOOP ( 'NONE', ( #176, #110, #169, #178 ) ) ;
#127 = PERSON_AND_ORGANIZATION ( #196, #161 ) ;
#128 = VECTOR ( 'NONE', #24, 1000.000000000000000 ) ;
#129 = DATE_AND_TIME ( #130, #131 ) ;
#130 = CALENDAR_DATE ( 2014, 6, 8 ) ;
#131 = LOCAL_TIME ( 12, 43, 49.00000000000000000, #132 ) ;
#132 = COORDINATED_UNIVERSAL_TIME_OFFSET ( 2, 0, .AHEAD. ) ;
#133 = PERSON_AND_ORGANIZATION ( #196, #161 ) ;
#134 = APPROVAL_DATE_TIME ( #136, #247 ) ;
#135 = CIRCLE ( 'NONE', #231, 4.500000000000170500 ) ;
#136 = DATE_AND_TIME ( #137, #179 ) ;
#137 = CALENDAR_DATE ( 2014, 6, 8 ) ;
#138 = VECTOR ( 'NONE', #34, 1000.000000000000000 ) ;
#139 = VECTOR ( 'NONE', #35, 1000.000000000000100 ) ;
#140 = LINE ( 'NONE', #43, #139 ) ;
#141 = EDGE_LOOP ( 'NONE', ( #184, #168 ) ) ;
#142 = CIRCLE ( 'NONE', #228, 5.000000000000000000 ) ;
#143 = LINE ( 'NONE', #25, #138 ) ;
#144 = CIRCLE ( 'NONE', #250, 5.000000000000000000 ) ;
#145 = LINE ( 'NONE', #15, #157 ) ;
#146 = CIRCLE ( 'NONE', #245, 4.500000000001058700 ) ;
#147 = CIRCLE ( 'NONE', #236, 5.000000000000000000 ) ;
#148 = FACE_OUTER_BOUND ( 'NONE', #114, .T. ) ;
#149 = LINE ( 'NONE', #29, #128 ) ;
#150 = VECTOR ( 'NONE', #44, 1000.000000000000000 ) ;
#151 = CYLINDRICAL_SURFACE ( 'NONE', #239, 5.000000000000000000 ) ;
#152 = CONICAL_SURFACE ( 'NONE', #251, 4.500000000000170500, 0.7853981633975549700 ) ;
#153 = ORIENTED_EDGE ( 'NONE', *, *, #255, .T. ) ;
#154 = LINE ( 'NONE', #41, #150 ) ;
#155 = CONICAL_SURFACE ( 'NONE', #235, 4.500000000000170500, 0.7853981633975549700 ) ;
#156 = CYLINDRICAL_SURFACE ( 'NONE', #243, 5.000000000000000000 ) ;
#157 = VECTOR ( 'NONE', #40, 1000.000000000000000 ) ;
#158 =( GEOMETRIC_REPRESENTATION_CONTEXT ( 3 ) GLOBAL_UNCERTAINTY_ASSIGNED_CONTEXT ( ( #46 ) ) GLOBAL_UNIT_ASSIGNED_CONTEXT ( ( #218, #215, #216 ) ) REPRESENTATION_CONTEXT ( 'NONE', 'WORKASPACE' ) );
#159 = PERSON_AND_ORGANIZATION ( #196, #161 ) ;
#160 = FACE_OUTER_BOUND ( 'NONE', #118, .T. ) ;
#161 = ORGANIZATION ( 'UNSPECIFIED', 'UNSPECIFIED', '' ) ;
#162 = FACE_OUTER_BOUND ( 'NONE', #99, .T. ) ;
#163 = CONICAL_SURFACE ( 'NONE', #242, 5.000000000000000000, 0.7853981633984431500 ) ;
#164 = CONICAL_SURFACE ( 'NONE', #240, 5.000000000000000000, 0.7853981633984431500 ) ;
#165 = FACE_OUTER_BOUND ( 'NONE', #117, .T. ) ;
#166 = ORIENTED_EDGE ( 'NONE', *, *, #238, .T. ) ;
#167 = ORIENTED_EDGE ( 'NONE', *, *, #260, .F. ) ;
#168 = ORIENTED_EDGE ( 'NONE', *, *, #230, .T. ) ;
#169 = ORIENTED_EDGE ( 'NONE', *, *, #238, .F. ) ;
#170 = ORIENTED_EDGE ( 'NONE', *, *, #259, .F. ) ;
#171 = ORIENTED_EDGE ( 'NONE', *, *, #257, .F. ) ;
#172 = ORIENTED_EDGE ( 'NONE', *, *, #244, .F. ) ;
#173 = ORIENTED_EDGE ( 'NONE', *, *, #258, .T. ) ;
#174 = ORIENTED_EDGE ( 'NONE', *, *, #227, .T. ) ;
#175 = ORIENTED_EDGE ( 'NONE', *, *, #257, .T. ) ;
#176 = ORIENTED_EDGE ( 'NONE', *, *, #230, .F. ) ;
#177 = CIRCLE ( 'NONE', #229, 4.500000000001058700 ) ;
#178 = ORIENTED_EDGE ( 'NONE', *, *, #255, .F. ) ;
#179 = LOCAL_TIME ( 12, 43, 49.00000000000000000, #189 ) ;
#180 = ORIENTED_EDGE ( 'NONE', *, *, #254, .F. ) ;
#181 = PERSON_AND_ORGANIZATION ( #196, #161 ) ;
#182 = ORIENTED_EDGE ( 'NONE', *, *, #259, .T. ) ;
#183 = ORIENTED_EDGE ( 'NONE', *, *, #253, .T. ) ;
#184 = ORIENTED_EDGE ( 'NONE', *, *, #263, .T. ) ;
#185 = ORIENTED_EDGE ( 'NONE', *, *, #254, .T. ) ;
#186 = ORIENTED_EDGE ( 'NONE', *, *, #260, .T. ) ;
#187 = ORIENTED_EDGE ( 'NONE', *, *, #264, .T. ) ;
#188 = APPROVAL_PERSON_ORGANIZATION ( #159, #247, #55 ) ;
#189 = COORDINATED_UNIVERSAL_TIME_OFFSET ( 2, 0, .AHEAD. ) ;
#190 = FACE_OUTER_BOUND ( 'NONE', #141, .T. ) ;
#191 = FACE_OUTER_BOUND ( 'NONE', #88, .T. ) ;
#192 = SHAPE_DEFINITION_REPRESENTATION ( #208, #45 ) ;
#193 = FACE_OUTER_BOUND ( 'NONE', #126, .T. ) ;
#194 = ORIENTED_EDGE ( 'NONE', *, *, #263, .F. ) ;
#195 = ORIENTED_EDGE ( 'NONE', *, *, #261, .F. ) ;
#196 = PERSON ( 'UNSPECIFIED', 'UNSPECIFIED', 'UNSPECIFIED', ('UNSPECIFIED'), ('UNSPECIFIED'), ('UNSPECIFIED') ) ;
#197 = PRODUCT ( 'WRA10', 'WRA10', '', ( #50 ) ) ;
#198 = DIRECTION ( 'NONE',  ( 0.0000000000000000000, 0.0000000000000000000, 1.000000000000000000 ) ) ;
#199 = DIRECTION ( 'NONE',  ( 1.000000000000000000, 0.0000000000000000000, 0.0000000000000000000 ) ) ;
#200 = ADVANCED_FACE ( 'NONE', ( #193 ), #163, .T. ) ;
#201 = ADVANCED_FACE ( 'NONE', ( #148 ), #164, .T. ) ;
#202 = ADVANCED_FACE ( 'NONE', ( #190 ), #86, .F. ) ;
#203 = ADVANCED_FACE ( 'NONE', ( #112 ), #156, .T. ) ;
#204 = ADVANCED_FACE ( 'NONE', ( #191 ), #155, .T. ) ;
#205 = ADVANCED_FACE ( 'NONE', ( #165 ), #8, .T. ) ;
#206 = ADVANCED_FACE ( 'NONE', ( #162 ), #152, .T. ) ;
#207 = ADVANCED_FACE ( 'NONE', ( #160 ), #151, .T. ) ;
#208 = PRODUCT_DEFINITION_SHAPE ( 'NONE', 'NONE',  #237 ) ;
#209 = DESIGN_CONTEXT ( 'detailed design', #52, 'design' ) ;
#210 = CARTESIAN_POINT ( 'NONE',  ( 0.0000000000000000000, 0.0000000000000000000, 0.0000000000000000000 ) ) ;
#211 = DIRECTION ( 'NONE',  ( 0.7071067811858441400, 8.659560562363547500E-017, 0.7071067811872510100 ) ) ;
#212 = DIRECTION ( 'NONE',  ( 0.0000000000000000000, 0.0000000000000000000, -1.000000000000000000 ) ) ;
#213 = CARTESIAN_POINT ( 'NONE',  ( -2999.500000000002300, 6.123233995736766300E-016, 5.000000000000000000 ) ) ;
#214 = CARTESIAN_POINT ( 'NONE',  ( 2999.500000000000500, 0.0000000000000000000, 0.0000000000000000000 ) ) ;
#215 =( NAMED_UNIT ( * ) PLANE_ANGLE_UNIT ( ) SI_UNIT ( $, .RADIAN. ) );
#216 =( NAMED_UNIT ( * ) SI_UNIT ( $, .STERADIAN. ) SOLID_ANGLE_UNIT ( ) );
#217 = CARTESIAN_POINT ( 'NONE',  ( -3000.000000000000000, 0.0000000000000000000, 0.0000000000000000000 ) ) ;
#218 =( LENGTH_UNIT ( ) NAMED_UNIT ( * ) SI_UNIT ( .MILLI., .METRE. ) );
#219 = DIRECTION ( 'NONE',  ( 0.0000000000000000000, 0.0000000000000000000, -1.000000000000000000 ) ) ;
#220 = DIRECTION ( 'NONE',  ( 1.000000000000000000, 0.0000000000000000000, 0.0000000000000000000 ) ) ;
#221 = DIRECTION ( 'NONE',  ( 1.000000000000000000, 0.0000000000000000000, 0.0000000000000000000 ) ) ;
#222 = DIRECTION ( 'NONE',  ( -1.000000000000000000, -0.0000000000000000000, -0.0000000000000000000 ) ) ;
#223 = DIRECTION ( 'NONE',  ( 0.0000000000000000000, 0.0000000000000000000, -1.000000000000000000 ) ) ;
#224 = DIRECTION ( 'NONE',  ( 0.0000000000000000000, 0.0000000000000000000, -1.000000000000000000 ) ) ;
#225 = CARTESIAN_POINT ( 'NONE',  ( 3000.000000000000000, 0.0000000000000000000, 0.0000000000000000000 ) ) ;
#226 = DIRECTION ( 'NONE',  ( -1.000000000000000000, 0.0000000000000000000, 0.0000000000000000000 ) ) ;
#227 = EDGE_CURVE ( 'NONE', #74, #76, #147, .T. ) ;
#228 = AXIS2_PLACEMENT_3D ( 'NONE', #31, #33, #36 ) ;
#229 = AXIS2_PLACEMENT_3D ( 'NONE', #217, #222, #224 ) ;
#230 = EDGE_CURVE ( 'NONE', #77, #87, #146, .T. ) ;
#231 = AXIS2_PLACEMENT_3D ( 'NONE', #26, #221, #223 ) ;
#232 = AXIS2_PLACEMENT_3D ( 'NONE', #225, #220, #212 ) ;
#233 = CC_DESIGN_PERSON_AND_ORGANIZATION_ASSIGNMENT ( #181, #51, ( #197 ) ) ;
#234 = CC_DESIGN_APPROVAL ( #247, ( #237 ) ) ;
#235 = AXIS2_PLACEMENT_3D ( 'NONE', #11, #3, #20 ) ;
#236 = AXIS2_PLACEMENT_3D ( 'NONE', #2, #27, #37 ) ;
#237 = PRODUCT_DEFINITION ( 'UNKNOWN', '', #262, #209 ) ;
#238 = EDGE_CURVE ( 'NONE', #76, #74, #144, .T. ) ;
#239 = AXIS2_PLACEMENT_3D ( 'NONE', #14, #18, #12 ) ;
#240 = AXIS2_PLACEMENT_3D ( 'NONE', #22, #23, #1 ) ;
#241 = CC_DESIGN_DATE_AND_TIME_ASSIGNMENT ( #129, #57, ( #237 ) ) ;
#242 = AXIS2_PLACEMENT_3D ( 'NONE', #71, #81, #67 ) ;
#243 = AXIS2_PLACEMENT_3D ( 'NONE', #5, #10, #17 ) ;
#244 = EDGE_CURVE ( 'NONE', #72, #78, #145, .T. ) ;
#245 = AXIS2_PLACEMENT_3D ( 'NONE', #28, #38, #39 ) ;
#246 = AXIS2_PLACEMENT_3D ( 'NONE', #214, #226, #219 ) ;
#247 = APPROVAL ( #54, 'UNSPECIFIED' ) ;
#248 = AXIS2_PLACEMENT_3D ( 'NONE', #210, #198, #199 ) ;
#249 = AXIS2_PLACEMENT_3D ( 'NONE', #7, #16, #13 ) ;
#250 = AXIS2_PLACEMENT_3D ( 'NONE', #42, #30, #32 ) ;
#251 = AXIS2_PLACEMENT_3D ( 'NONE', #4, #6, #19 ) ;
#252 = AXIS2_PLACEMENT_3D ( 'NONE', #79, #21, #9 ) ;
#253 = EDGE_CURVE ( 'NONE', #83, #78, #142, .T. ) ;
#254 = EDGE_CURVE ( 'NONE', #74, #78, #154, .T. ) ;
#255 = EDGE_CURVE ( 'NONE', #87, #76, #140, .T. ) ;
#256 = CC_DESIGN_PERSON_AND_ORGANIZATION_ASSIGNMENT ( #133, #56, ( #237 ) ) ;
#257 = EDGE_CURVE ( 'NONE', #76, #83, #143, .T. ) ;
#258 = EDGE_CURVE ( 'NONE', #84, #83, #149, .T. ) ;
#259 = EDGE_CURVE ( 'NONE', #78, #83, #103, .T. ) ;
#260 = EDGE_CURVE ( 'NONE', #84, #72, #135, .T. ) ;
#261 = EDGE_CURVE ( 'NONE', #77, #74, #93, .T. ) ;
#262 = PRODUCT_DEFINITION_FORMATION_WITH_SPECIFIED_SOURCE ( 'ANY', '', #197, .NOT_KNOWN. ) ;
#263 = EDGE_CURVE ( 'NONE', #87, #77, #177, .T. ) ;
#264 = EDGE_CURVE ( 'NONE', #72, #84, #122, .T. ) ;
#265 = CC_DESIGN_APPROVAL ( #266, ( #262 ) ) ;
#266 = APPROVAL ( #58, 'UNSPECIFIED' ) ;
#267 = CC_DESIGN_PERSON_AND_ORGANIZATION_ASSIGNMENT ( #115, #61, ( #262 ) ) ;
#268 = CC_DESIGN_SECURITY_CLASSIFICATION ( #269, ( #262 ) ) ;
#269 = SECURITY_CLASSIFICATION ( '', '', #62 ) ;
#270 = CC_DESIGN_PERSON_AND_ORGANIZATION_ASSIGNMENT ( #116, #60, ( #262 ) ) ;
#271 = PRODUCT_RELATED_PRODUCT_CATEGORY ( 'detail', '', ( #197 ) ) ;
#272 = CC_DESIGN_DATE_AND_TIME_ASSIGNMENT ( #108, #64, ( #269 ) ) ;
#273 = APPROVAL ( #65, 'UNSPECIFIED' ) ;
#274 = CC_DESIGN_PERSON_AND_ORGANIZATION_ASSIGNMENT ( #113, #63, ( #269 ) ) ;
#275 = CC_DESIGN_APPROVAL ( #273, ( #269 ) ) ;
ENDSEC;
END-ISO-10303-21;
