ISO-10303-21;
HEADER;
FILE_DESCRIPTION (( 'STEP AP203' ),
    '1' );
FILE_NAME ('WRA8.STEP',
    '2014-08-06T09:43:05',
    ( 'Ovidiu Buiga' ),
    ( '' ),
    'SwSTEP 2.0',
    'SolidWorks 2010',
    '' );
FILE_SCHEMA (( 'CONFIG_CONTROL_DESIGN' ));
ENDSEC;

DATA;
#1 = ADVANCED_FACE ( 'NONE', ( #67 ), #82, .T. ) ;
#2 = ADVANCED_FACE ( 'NONE', ( #39 ), #185, .T. ) ;
#3 = ADVANCED_FACE ( 'NONE', ( #80 ), #85, .T. ) ;
#4 = ADVANCED_FACE ( 'NONE', ( #75 ), #87, .T. ) ;
#5 = ADVANCED_FACE ( 'NONE', ( #81 ), #186, .F. ) ;
#6 = ADVANCED_FACE ( 'NONE', ( #83 ), #89, .T. ) ;
#7 = ADVANCED_FACE ( 'NONE', ( #84 ), #91, .T. ) ;
#8 = ADVANCED_FACE ( 'NONE', ( #86 ), #93, .T. ) ;
#9 = APPROVAL_PERSON_ORGANIZATION ( #11, #130, #191 ) ;
#10 = APPROVAL_DATE_TIME ( #20, #123 ) ;
#11 = PERSON_AND_ORGANIZATION ( #146, #106 ) ;
#12 = CALENDAR_DATE ( 2014, 6, 8 ) ;
#13 = APPROVAL_DATE_TIME ( #16, #130 ) ;
#14 = APPROVAL_DATE_TIME ( #64, #136 ) ;
#15 = LOCAL_TIME ( 12, 43, 5.000000000000000000, #22 ) ;
#16 = DATE_AND_TIME ( #17, #21 ) ;
#17 = CALENDAR_DATE ( 2014, 6, 8 ) ;
#18 = PERSON_AND_ORGANIZATION ( #146, #106 ) ;
#19 = DATE_AND_TIME ( #12, #15 ) ;
#20 = DATE_AND_TIME ( #35, #32 ) ;
#21 = LOCAL_TIME ( 12, 43, 5.000000000000000000, #23 ) ;
#22 = COORDINATED_UNIVERSAL_TIME_OFFSET ( 2, 0, .AHEAD. ) ;
#23 = COORDINATED_UNIVERSAL_TIME_OFFSET ( 2, 0, .AHEAD. ) ;
#24 = PERSON_AND_ORGANIZATION ( #146, #106 ) ;
#25 = PERSON_AND_ORGANIZATION ( #146, #106 ) ;
#26 = PERSON_AND_ORGANIZATION ( #146, #106 ) ;
#27 = COORDINATED_UNIVERSAL_TIME_OFFSET ( 2, 0, .AHEAD. ) ;
#28 = LOCAL_TIME ( 12, 43, 5.000000000000000000, #27 ) ;
#29 = CALENDAR_DATE ( 2014, 6, 8 ) ;
#30 = DATE_AND_TIME ( #29, #28 ) ;
#31 = PERSON_AND_ORGANIZATION ( #146, #106 ) ;
#32 = LOCAL_TIME ( 12, 43, 5.000000000000000000, #34 ) ;
#33 = APPROVAL_PERSON_ORGANIZATION ( #31, #123, #196 ) ;
#34 = COORDINATED_UNIVERSAL_TIME_OFFSET ( 2, 0, .AHEAD. ) ;
#35 = CALENDAR_DATE ( 2014, 6, 8 ) ;
#36 = APPROVAL_PERSON_ORGANIZATION ( #102, #136, #149 ) ;
#37 = EDGE_LOOP ( 'NONE', ( #57, #53, #60, #59 ) ) ;
#38 = CIRCLE ( 'NONE', #140, 3.500000000000724800 ) ;
#39 = FACE_OUTER_BOUND ( 'NONE', #114, .T. ) ;
#40 = CLOSED_SHELL ( 'NONE', ( #7, #1, #3, #6, #5, #2, #4, #8 ) ) ;
#41 = EDGE_LOOP ( 'NONE', ( #43, #45, #111, #112 ) ) ;
#42 = CIRCLE ( 'NONE', #142, 4.000000000000000000 ) ;
#43 = ORIENTED_EDGE ( 'NONE', *, *, #259, .F. ) ;
#44 = CIRCLE ( 'NONE', #143, 4.000000000000000000 ) ;
#45 = ORIENTED_EDGE ( 'NONE', *, *, #262, .F. ) ;
#46 = ORIENTED_EDGE ( 'NONE', *, *, #270, .F. ) ;
#47 = ORIENTED_EDGE ( 'NONE', *, *, #266, .F. ) ;
#48 = ORIENTED_EDGE ( 'NONE', *, *, #256, .T. ) ;
#49 = ORIENTED_EDGE ( 'NONE', *, *, #264, .T. ) ;
#50 = CIRCLE ( 'NONE', #117, 4.000000000000000000 ) ;
#51 = ORIENTED_EDGE ( 'NONE', *, *, #269, .T. ) ;
#52 = CIRCLE ( 'NONE', #118, 4.000000000000000000 ) ;
#53 = ORIENTED_EDGE ( 'NONE', *, *, #271, .T. ) ;
#54 = ORIENTED_EDGE ( 'NONE', *, *, #270, .T. ) ;
#55 = CIRCLE ( 'NONE', #121, 3.499999999998948400 ) ;
#56 = ORIENTED_EDGE ( 'NONE', *, *, #265, .F. ) ;
#57 = ORIENTED_EDGE ( 'NONE', *, *, #264, .F. ) ;
#58 = ORIENTED_EDGE ( 'NONE', *, *, #261, .T. ) ;
#59 = ORIENTED_EDGE ( 'NONE', *, *, #274, .T. ) ;
#60 = ORIENTED_EDGE ( 'NONE', *, *, #265, .T. ) ;
#61 = CALENDAR_DATE ( 2014, 6, 8 ) ;
#62 = ORIENTED_EDGE ( 'NONE', *, *, #268, .F. ) ;
#63 = EDGE_LOOP ( 'NONE', ( #78, #66, #109, #62 ) ) ;
#64 = DATE_AND_TIME ( #61, #116 ) ;
#65 =( GEOMETRIC_REPRESENTATION_CONTEXT ( 3 ) GLOBAL_UNCERTAINTY_ASSIGNED_CONTEXT ( ( #251 ) ) GLOBAL_UNIT_ASSIGNED_CONTEXT ( ( #201, #225, #198 ) ) REPRESENTATION_CONTEXT ( 'NONE', 'WORKASPACE' ) );
#66 = ORIENTED_EDGE ( 'NONE', *, *, #259, .T. ) ;
#67 = FACE_OUTER_BOUND ( 'NONE', #113, .T. ) ;
#68 = ORIENTED_EDGE ( 'NONE', *, *, #275, .F. ) ;
#69 = ORIENTED_EDGE ( 'NONE', *, *, #261, .F. ) ;
#70 = ORIENTED_EDGE ( 'NONE', *, *, #275, .T. ) ;
#71 = ORIENTED_EDGE ( 'NONE', *, *, #256, .F. ) ;
#72 = ORIENTED_EDGE ( 'NONE', *, *, #266, .T. ) ;
#73 = ORIENTED_EDGE ( 'NONE', *, *, #267, .T. ) ;
#74 = ORIENTED_EDGE ( 'NONE', *, *, #262, .T. ) ;
#75 = FACE_OUTER_BOUND ( 'NONE', #108, .T. ) ;
#76 = COORDINATED_UNIVERSAL_TIME_OFFSET ( 2, 0, .AHEAD. ) ;
#77 = ORIENTED_EDGE ( 'NONE', *, *, #271, .F. ) ;
#78 = ORIENTED_EDGE ( 'NONE', *, *, #267, .F. ) ;
#79 = EDGE_LOOP ( 'NONE', ( #58, #70 ) ) ;
#80 = FACE_OUTER_BOUND ( 'NONE', #110, .T. ) ;
#81 = FACE_OUTER_BOUND ( 'NONE', #79, .T. ) ;
#82 = CONICAL_SURFACE ( 'NONE', #257, 4.000000000000000000, 0.7853981633965567700 ) ;
#83 = FACE_OUTER_BOUND ( 'NONE', #37, .T. ) ;
#84 = FACE_OUTER_BOUND ( 'NONE', #63, .T. ) ;
#85 = CYLINDRICAL_SURFACE ( 'NONE', #258, 4.000000000000000000 ) ;
#86 = FACE_OUTER_BOUND ( 'NONE', #41, .T. ) ;
#87 = CONICAL_SURFACE ( 'NONE', #273, 4.000000000000000000, 0.7853981633965567700 ) ;
#88 = LINE ( 'NONE', #151, #103 ) ;
#89 = CYLINDRICAL_SURFACE ( 'NONE', #272, 4.000000000000000000 ) ;
#90 = LINE ( 'NONE', #243, #95 ) ;
#91 = CONICAL_SURFACE ( 'NONE', #144, 3.499999999998948400, 0.7853981633978889300 ) ;
#92 = VECTOR ( 'NONE', #170, 1000.000000000000000 ) ;
#93 = CONICAL_SURFACE ( 'NONE', #141, 3.499999999998948400, 0.7853981633978889300 ) ;
#94 = LINE ( 'NONE', #190, #92 ) ;
#95 = VECTOR ( 'NONE', #163, 1000.000000000000000 ) ;
#96 = LINE ( 'NONE', #226, #101 ) ;
#97 = VECTOR ( 'NONE', #194, 1000.000000000000000 ) ;
#98 = CIRCLE ( 'NONE', #145, 3.500000000000724800 ) ;
#99 = LINE ( 'NONE', #242, #97 ) ;
#100 = CIRCLE ( 'NONE', #133, 3.499999999998948400 ) ;
#101 = VECTOR ( 'NONE', #235, 1000.000000000000000 ) ;
#102 = PERSON_AND_ORGANIZATION ( #146, #106 ) ;
#103 = VECTOR ( 'NONE', #241, 1000.000000000000000 ) ;
#104 = LINE ( 'NONE', #174, #115 ) ;
#105 = PERSON_AND_ORGANIZATION ( #146, #106 ) ;
#106 = ORGANIZATION ( 'UNSPECIFIED', 'UNSPECIFIED', '' ) ;
#107 = SHAPE_DEFINITION_REPRESENTATION ( #254, #253 ) ;
#108 = EDGE_LOOP ( 'NONE', ( #71, #69, #72, #77 ) ) ;
#109 = ORIENTED_EDGE ( 'NONE', *, *, #269, .F. ) ;
#110 = EDGE_LOOP ( 'NONE', ( #54, #49, #51, #56 ) ) ;
#111 = ORIENTED_EDGE ( 'NONE', *, *, #268, .T. ) ;
#112 = ORIENTED_EDGE ( 'NONE', *, *, #274, .F. ) ;
#113 = EDGE_LOOP ( 'NONE', ( #68, #48, #46, #47 ) ) ;
#114 = EDGE_LOOP ( 'NONE', ( #74, #73 ) ) ;
#115 = VECTOR ( 'NONE', #150, 1000.000000000000000 ) ;
#116 = LOCAL_TIME ( 12, 43, 5.000000000000000000, #76 ) ;
#117 = AXIS2_PLACEMENT_3D ( 'NONE', #175, #181, #159 ) ;
#118 = AXIS2_PLACEMENT_3D ( 'NONE', #209, #195, #215 ) ;
#119 = PRODUCT_RELATED_PRODUCT_CATEGORY ( 'detail', '', ( #147 ) ) ;
#120 = CC_DESIGN_SECURITY_CLASSIFICATION ( #126, ( #131 ) ) ;
#121 = AXIS2_PLACEMENT_3D ( 'NONE', #238, #233, #210 ) ;
#122 = CC_DESIGN_APPROVAL ( #123, ( #126 ) ) ;
#123 = APPROVAL ( #232, 'UNSPECIFIED' ) ;
#124 = CC_DESIGN_DATE_AND_TIME_ASSIGNMENT ( #30, #245, ( #126 ) ) ;
#125 = CC_DESIGN_PERSON_AND_ORGANIZATION_ASSIGNMENT ( #26, #179, ( #126 ) ) ;
#126 = SECURITY_CLASSIFICATION ( '', '', #162 ) ;
#127 = CC_DESIGN_PERSON_AND_ORGANIZATION_ASSIGNMENT ( #25, #219, ( #131 ) ) ;
#128 = CC_DESIGN_PERSON_AND_ORGANIZATION_ASSIGNMENT ( #24, #154, ( #131 ) ) ;
#129 = CC_DESIGN_APPROVAL ( #130, ( #131 ) ) ;
#130 = APPROVAL ( #217, 'UNSPECIFIED' ) ;
#131 = PRODUCT_DEFINITION_FORMATION_WITH_SPECIFIED_SOURCE ( 'ANY', '', #147, .NOT_KNOWN. ) ;
#132 = CC_DESIGN_DATE_AND_TIME_ASSIGNMENT ( #19, #203, ( #137 ) ) ;
#133 = AXIS2_PLACEMENT_3D ( 'NONE', #188, #173, #224 ) ;
#134 = CC_DESIGN_PERSON_AND_ORGANIZATION_ASSIGNMENT ( #18, #216, ( #137 ) ) ;
#135 = CC_DESIGN_APPROVAL ( #136, ( #137 ) ) ;
#136 = APPROVAL ( #152, 'UNSPECIFIED' ) ;
#137 = PRODUCT_DEFINITION ( 'UNKNOWN', '', #131, #255 ) ;
#138 = CC_DESIGN_PERSON_AND_ORGANIZATION_ASSIGNMENT ( #105, #240, ( #147 ) ) ;
#139 = AXIS2_PLACEMENT_3D ( 'NONE', #239, #165, #214 ) ;
#140 = AXIS2_PLACEMENT_3D ( 'NONE', #193, #200, #213 ) ;
#141 = AXIS2_PLACEMENT_3D ( 'NONE', #164, #189, #231 ) ;
#142 = AXIS2_PLACEMENT_3D ( 'NONE', #172, #166, #211 ) ;
#143 = AXIS2_PLACEMENT_3D ( 'NONE', #205, #206, #171 ) ;
#144 = AXIS2_PLACEMENT_3D ( 'NONE', #178, #161, #229 ) ;
#145 = AXIS2_PLACEMENT_3D ( 'NONE', #199, #227, #249 ) ;
#146 = PERSON ( 'UNSPECIFIED', 'UNSPECIFIED', 'UNSPECIFIED', ('UNSPECIFIED'), ('UNSPECIFIED'), ('UNSPECIFIED') ) ;
#147 = PRODUCT ( 'WRA8', 'WRA8', '', ( #207 ) ) ;
#148 = APPLICATION_PROTOCOL_DEFINITION ( 'international standard', 'config_control_design', 1994, #248 ) ;
#149 = APPROVAL_ROLE ( '' ) ;
#150 = DIRECTION ( 'NONE',  ( -0.7071067811862360400, 0.0000000000000000000, 0.7071067811868591000 ) ) ;
#151 = CARTESIAN_POINT ( 'NONE',  ( -3000.000000000000000, 0.0000000000000000000, -4.000000000000000000 ) ) ;
#152 = APPROVAL_STATUS ( 'not_yet_approved' ) ;
#153 = DIRECTION ( 'NONE',  ( 0.0000000000000000000, 0.0000000000000000000, -1.000000000000000000 ) ) ;
#154 = PERSON_AND_ORGANIZATION_ROLE ( 'creator' ) ;
#155 = CARTESIAN_POINT ( 'NONE',  ( -3000.000000000000000, 0.0000000000000000000, 0.0000000000000000000 ) ) ;
#156 = VERTEX_POINT ( 'NONE', #167 ) ;
#157 = DIRECTION ( 'NONE',  ( 0.0000000000000000000, 0.0000000000000000000, -1.000000000000000000 ) ) ;
#158 = DIRECTION ( 'NONE',  ( 1.000000000000000000, 0.0000000000000000000, 0.0000000000000000000 ) ) ;
#159 = DIRECTION ( 'NONE',  ( 0.0000000000000000000, 0.0000000000000000000, -1.000000000000000000 ) ) ;
#160 = VERTEX_POINT ( 'NONE', #244 ) ;
#161 = DIRECTION ( 'NONE',  ( -1.000000000000000000, 0.0000000000000000000, 0.0000000000000000000 ) ) ;
#162 = SECURITY_CLASSIFICATION_LEVEL ( 'unclassified' ) ;
#163 = DIRECTION ( 'NONE',  ( 0.7071067811871779600, 8.659560562347211900E-017, 0.7071067811859170800 ) ) ;
#164 = CARTESIAN_POINT ( 'NONE',  ( 3000.000000000000000, 0.0000000000000000000, 0.0000000000000000000 ) ) ;
#165 = DIRECTION ( 'NONE',  ( 0.0000000000000000000, 0.0000000000000000000, 1.000000000000000000 ) ) ;
#166 = DIRECTION ( 'NONE',  ( -1.000000000000000000, 0.0000000000000000000, 0.0000000000000000000 ) ) ;
#167 = CARTESIAN_POINT ( 'NONE',  ( -2999.500000000000000, 0.0000000000000000000, -4.000000000000000000 ) ) ;
#168 = CARTESIAN_POINT ( 'NONE',  ( 3000.000000000000000, 0.0000000000000000000, 0.0000000000000000000 ) ) ;
#169 = DIRECTION ( 'NONE',  ( 1.000000000000000000, 0.0000000000000000000, 0.0000000000000000000 ) ) ;
#170 = DIRECTION ( 'NONE',  ( -0.7071067811862360400, 8.659560562358750200E-017, -0.7071067811868591000 ) ) ;
#171 = DIRECTION ( 'NONE',  ( 0.0000000000000000000, 0.0000000000000000000, -1.000000000000000000 ) ) ;
#172 = CARTESIAN_POINT ( 'NONE',  ( 2999.499999999999500, 0.0000000000000000000, 0.0000000000000000000 ) ) ;
#173 = DIRECTION ( 'NONE',  ( 1.000000000000000000, 0.0000000000000000000, 0.0000000000000000000 ) ) ;
#174 = CARTESIAN_POINT ( 'NONE',  ( 3000.000000000000000, 0.0000000000000000000, 3.499999999998948400 ) ) ;
#175 = CARTESIAN_POINT ( 'NONE',  ( -2999.500000000000000, 0.0000000000000000000, 0.0000000000000000000 ) ) ;
#176 = VERTEX_POINT ( 'NONE', #187 ) ;
#177 = CARTESIAN_POINT ( 'NONE',  ( -3000.000000000000000, 0.0000000000000000000, -3.500000000000724800 ) ) ;
#178 = CARTESIAN_POINT ( 'NONE',  ( 3000.000000000000000, 0.0000000000000000000, 0.0000000000000000000 ) ) ;
#179 = PERSON_AND_ORGANIZATION_ROLE ( 'classification_officer' ) ;
#180 = CARTESIAN_POINT ( 'NONE',  ( -2999.500000000000000, 0.0000000000000000000, 0.0000000000000000000 ) ) ;
#181 = DIRECTION ( 'NONE',  ( 1.000000000000000000, -0.0000000000000000000, -0.0000000000000000000 ) ) ;
#182 = CARTESIAN_POINT ( 'NONE',  ( -3000.000000000000000, 0.0000000000000000000, 0.0000000000000000000 ) ) ;
#183 = DIRECTION ( 'NONE',  ( 1.000000000000000000, -0.0000000000000000000, -0.0000000000000000000 ) ) ;
#184 = DIRECTION ( 'NONE',  ( 1.000000000000000000, 0.0000000000000000000, 0.0000000000000000000 ) ) ;
#185 = PLANE ( 'NONE',  #263 ) ;
#186 = PLANE ( 'NONE',  #260 ) ;
#187 = CARTESIAN_POINT ( 'NONE',  ( 3000.000000000000000, 4.592425496801931100E-016, -3.499999999998948400 ) ) ;
#188 = CARTESIAN_POINT ( 'NONE',  ( 3000.000000000000000, 0.0000000000000000000, 0.0000000000000000000 ) ) ;
#189 = DIRECTION ( 'NONE',  ( -1.000000000000000000, 0.0000000000000000000, 0.0000000000000000000 ) ) ;
#190 = CARTESIAN_POINT ( 'NONE',  ( 3000.000000000000000, 4.286263797014448300E-016, -3.499999999998948400 ) ) ;
#191 = APPROVAL_ROLE ( '' ) ;
#192 = VERTEX_POINT ( 'NONE', #246 ) ;
#193 = CARTESIAN_POINT ( 'NONE',  ( -3000.000000000000000, 0.0000000000000000000, 0.0000000000000000000 ) ) ;
#194 = DIRECTION ( 'NONE',  ( 1.000000000000000000, 0.0000000000000000000, 0.0000000000000000000 ) ) ;
#195 = DIRECTION ( 'NONE',  ( -1.000000000000000000, 0.0000000000000000000, 0.0000000000000000000 ) ) ;
#196 = APPROVAL_ROLE ( '' ) ;
#197 = VERTEX_POINT ( 'NONE', #208 ) ;
#198 =( NAMED_UNIT ( * ) SI_UNIT ( $, .STERADIAN. ) SOLID_ANGLE_UNIT ( ) );
#199 = CARTESIAN_POINT ( 'NONE',  ( -3000.000000000000000, 0.0000000000000000000, 0.0000000000000000000 ) ) ;
#200 = DIRECTION ( 'NONE',  ( -1.000000000000000000, -0.0000000000000000000, -0.0000000000000000000 ) ) ;
#201 =( LENGTH_UNIT ( ) NAMED_UNIT ( * ) SI_UNIT ( .MILLI., .METRE. ) );
#202 = APPLICATION_CONTEXT ( 'configuration controlled 3d designs of mechanical parts and assemblies' ) ;
#203 = DATE_TIME_ROLE ( 'creation_date' ) ;
#204 = CARTESIAN_POINT ( 'NONE',  ( -3000.000000000000000, 4.592425496803017700E-016, 3.500000000000724800 ) ) ;
#205 = CARTESIAN_POINT ( 'NONE',  ( -2999.500000000000000, 0.0000000000000000000, 0.0000000000000000000 ) ) ;
#206 = DIRECTION ( 'NONE',  ( 1.000000000000000000, -0.0000000000000000000, -0.0000000000000000000 ) ) ;
#207 = MECHANICAL_CONTEXT ( 'NONE', #248, 'mechanical' ) ;
#208 = CARTESIAN_POINT ( 'NONE',  ( 2999.499999999999500, 4.898587196589412800E-016, 4.000000000000000000 ) ) ;
#209 = CARTESIAN_POINT ( 'NONE',  ( 2999.499999999999500, 0.0000000000000000000, 0.0000000000000000000 ) ) ;
#210 = DIRECTION ( 'NONE',  ( 0.0000000000000000000, 0.0000000000000000000, -1.000000000000000000 ) ) ;
#211 = DIRECTION ( 'NONE',  ( 0.0000000000000000000, 0.0000000000000000000, -1.000000000000000000 ) ) ;
#212 = DIRECTION ( 'NONE',  ( 0.0000000000000000000, 0.0000000000000000000, -1.000000000000000000 ) ) ;
#213 = DIRECTION ( 'NONE',  ( 0.0000000000000000000, 0.0000000000000000000, -1.000000000000000000 ) ) ;
#214 = DIRECTION ( 'NONE',  ( 1.000000000000000000, 0.0000000000000000000, 0.0000000000000000000 ) ) ;
#215 = DIRECTION ( 'NONE',  ( 0.0000000000000000000, 0.0000000000000000000, -1.000000000000000000 ) ) ;
#216 = PERSON_AND_ORGANIZATION_ROLE ( 'creator' ) ;
#217 = APPROVAL_STATUS ( 'not_yet_approved' ) ;
#218 = DIRECTION ( 'NONE',  ( 0.0000000000000000000, 0.0000000000000000000, -1.000000000000000000 ) ) ;
#219 = PERSON_AND_ORGANIZATION_ROLE ( 'design_supplier' ) ;
#220 = CARTESIAN_POINT ( 'NONE',  ( -2999.500000000000000, 0.0000000000000000000, 0.0000000000000000000 ) ) ;
#221 = VERTEX_POINT ( 'NONE', #234 ) ;
#222 = DIRECTION ( 'NONE',  ( 1.000000000000000000, 0.0000000000000000000, 0.0000000000000000000 ) ) ;
#223 = VERTEX_POINT ( 'NONE', #177 ) ;
#224 = DIRECTION ( 'NONE',  ( 0.0000000000000000000, 0.0000000000000000000, -1.000000000000000000 ) ) ;
#225 =( NAMED_UNIT ( * ) PLANE_ANGLE_UNIT ( ) SI_UNIT ( $, .RADIAN. ) );
#226 = CARTESIAN_POINT ( 'NONE',  ( -2999.500000000000000, 0.0000000000000000000, -4.000000000000000000 ) ) ;
#227 = DIRECTION ( 'NONE',  ( -1.000000000000000000, -0.0000000000000000000, -0.0000000000000000000 ) ) ;
#228 = DIRECTION ( 'NONE',  ( 0.0000000000000000000, 0.0000000000000000000, -1.000000000000000000 ) ) ;
#229 = DIRECTION ( 'NONE',  ( 0.0000000000000000000, 0.0000000000000000000, 1.000000000000000000 ) ) ;
#230 = CARTESIAN_POINT ( 'NONE',  ( -3000.000000000000000, 0.0000000000000000000, 0.0000000000000000000 ) ) ;
#231 = DIRECTION ( 'NONE',  ( 0.0000000000000000000, 0.0000000000000000000, 1.000000000000000000 ) ) ;
#232 = APPROVAL_STATUS ( 'not_yet_approved' ) ;
#233 = DIRECTION ( 'NONE',  ( 1.000000000000000000, 0.0000000000000000000, 0.0000000000000000000 ) ) ;
#234 = CARTESIAN_POINT ( 'NONE',  ( 2999.499999999999500, 0.0000000000000000000, -4.000000000000000000 ) ) ;
#235 = DIRECTION ( 'NONE',  ( 0.7071067811871779600, 0.0000000000000000000, -0.7071067811859170800 ) ) ;
#236 = VERTEX_POINT ( 'NONE', #204 ) ;
#237 = APPLICATION_PROTOCOL_DEFINITION ( 'international standard', 'config_control_design', 1994, #202 ) ;
#238 = CARTESIAN_POINT ( 'NONE',  ( 3000.000000000000000, 0.0000000000000000000, 0.0000000000000000000 ) ) ;
#239 = CARTESIAN_POINT ( 'NONE',  ( 0.0000000000000000000, 0.0000000000000000000, 0.0000000000000000000 ) ) ;
#240 = PERSON_AND_ORGANIZATION_ROLE ( 'design_owner' ) ;
#241 = DIRECTION ( 'NONE',  ( 1.000000000000000000, 0.0000000000000000000, 0.0000000000000000000 ) ) ;
#242 = CARTESIAN_POINT ( 'NONE',  ( -3000.000000000000000, 4.898587196589412800E-016, 4.000000000000000000 ) ) ;
#243 = CARTESIAN_POINT ( 'NONE',  ( -2999.500000000000000, 4.898587196589412800E-016, 4.000000000000000000 ) ) ;
#244 = CARTESIAN_POINT ( 'NONE',  ( -2999.500000000000000, 4.898587196589412800E-016, 4.000000000000000000 ) ) ;
#245 = DATE_TIME_ROLE ( 'classification_date' ) ;
#246 = CARTESIAN_POINT ( 'NONE',  ( 3000.000000000000000, 0.0000000000000000000, 3.499999999998948400 ) ) ;
#247 = DIRECTION ( 'NONE',  ( 1.000000000000000000, -0.0000000000000000000, -0.0000000000000000000 ) ) ;
#248 = APPLICATION_CONTEXT ( 'configuration controlled 3d designs of mechanical parts and assemblies' ) ;
#249 = DIRECTION ( 'NONE',  ( 0.0000000000000000000, 0.0000000000000000000, -1.000000000000000000 ) ) ;
#250 = DIRECTION ( 'NONE',  ( 0.0000000000000000000, 0.0000000000000000000, -1.000000000000000000 ) ) ;
#251 = UNCERTAINTY_MEASURE_WITH_UNIT (LENGTH_MEASURE( 1.000000000000000100E-005 ), #201, 'distance_accuracy_value', 'NONE');
#252 = MANIFOLD_SOLID_BREP ( 'Chamfer1', #40 ) ;
#253 = ADVANCED_BREP_SHAPE_REPRESENTATION ( 'WRA8', ( #252, #139 ), #65 ) ;
#254 = PRODUCT_DEFINITION_SHAPE ( 'NONE', 'NONE',  #137 ) ;
#255 = DESIGN_CONTEXT ( 'detailed design', #202, 'design' ) ;
#256 = EDGE_CURVE ( 'NONE', #236, #160, #90, .T. ) ;
#257 = AXIS2_PLACEMENT_3D ( 'NONE', #180, #183, #212 ) ;
#258 = AXIS2_PLACEMENT_3D ( 'NONE', #155, #169, #250 ) ;
#259 = EDGE_CURVE ( 'NONE', #176, #221, #94, .T. ) ;
#260 = AXIS2_PLACEMENT_3D ( 'NONE', #182, #158, #228 ) ;
#261 = EDGE_CURVE ( 'NONE', #223, #236, #98, .T. ) ;
#262 = EDGE_CURVE ( 'NONE', #192, #176, #100, .T. ) ;
#263 = AXIS2_PLACEMENT_3D ( 'NONE', #168, #184, #153 ) ;
#264 = EDGE_CURVE ( 'NONE', #160, #197, #99, .T. ) ;
#265 = EDGE_CURVE ( 'NONE', #156, #221, #88, .T. ) ;
#266 = EDGE_CURVE ( 'NONE', #223, #156, #96, .T. ) ;
#267 = EDGE_CURVE ( 'NONE', #176, #192, #55, .T. ) ;
#268 = EDGE_CURVE ( 'NONE', #192, #197, #104, .T. ) ;
#269 = EDGE_CURVE ( 'NONE', #197, #221, #52, .T. ) ;
#270 = EDGE_CURVE ( 'NONE', #156, #160, #50, .T. ) ;
#271 = EDGE_CURVE ( 'NONE', #160, #156, #44, .T. ) ;
#272 = AXIS2_PLACEMENT_3D ( 'NONE', #230, #222, #218 ) ;
#273 = AXIS2_PLACEMENT_3D ( 'NONE', #220, #247, #157 ) ;
#274 = EDGE_CURVE ( 'NONE', #221, #197, #42, .T. ) ;
#275 = EDGE_CURVE ( 'NONE', #236, #223, #38, .T. ) ;
ENDSEC;
END-ISO-10303-21;
