ISO-10303-21;
HEADER;
FILE_DESCRIPTION (( 'STEP AP203' ),
    '1' );
FILE_NAME ('SF60.STEP',
    '2016-03-18T07:42:00',
    ( '' ),
    ( '' ),
    'SwSTEP 2.0',
    'SolidWorks 2010',
    '' );
FILE_SCHEMA (( 'CONFIG_CONTROL_DESIGN' ));
ENDSEC;

DATA;
#1 = PERSON ( 'UNSPECIFIED', 'UNSPECIFIED', 'UNSPECIFIED', ('UNSPECIFIED'), ('UNSPECIFIED'), ('UNSPECIFIED') ) ;
#2 = PRODUCT ( 'SF60', 'SF60', '', ( #162 ) ) ;
#3 = ADVANCED_BREP_SHAPE_REPRESENTATION ( 'SF60', ( #5, #113 ), #83 ) ;
#4 = UNCERTAINTY_MEASURE_WITH_UNIT (LENGTH_MEASURE( 1.000000000000000100E-005 ), #173, 'distance_accuracy_value', 'NONE');
#5 = MANIFOLD_SOLID_BREP ( 'Chamfer1', #36 ) ;
#6 = DESIGN_CONTEXT ( 'detailed design', #129, 'design' ) ;
#7 = PRODUCT_DEFINITION_SHAPE ( 'NONE', 'NONE',  #109 ) ;
#8 = ADVANCED_FACE ( 'NONE', ( #26, #43 ), #87, .T. ) ;
#9 = ADVANCED_FACE ( 'NONE', ( #72, #67 ), #74, .T. ) ;
#10 = ADVANCED_FACE ( 'NONE', ( #27 ), #135, .F. ) ;
#11 = AXIS2_PLACEMENT_3D ( 'NONE', #136, #142, #133 ) ;
#12 = AXIS2_PLACEMENT_3D ( 'NONE', #156, #150, #146 ) ;
#13 = EDGE_CURVE ( 'NONE', #152, #152, #84, .T. ) ;
#14 = AXIS2_PLACEMENT_3D ( 'NONE', #126, #120, #164 ) ;
#15 = EDGE_CURVE ( 'NONE', #151, #151, #85, .T. ) ;
#16 = EDGE_CURVE ( 'NONE', #148, #148, #89, .T. ) ;
#17 = AXIS2_PLACEMENT_3D ( 'NONE', #114, #124, #123 ) ;
#18 = EDGE_CURVE ( 'NONE', #170, #170, #90, .T. ) ;
#19 = AXIS2_PLACEMENT_3D ( 'NONE', #140, #144, #145 ) ;
#20 = AXIS2_PLACEMENT_3D ( 'NONE', #117, #137, #139 ) ;
#21 = AXIS2_PLACEMENT_3D ( 'NONE', #134, #167, #141 ) ;
#22 = AXIS2_PLACEMENT_3D ( 'NONE', #166, #130, #128 ) ;
#23 = ADVANCED_FACE ( 'NONE', ( #52 ), #125, .T. ) ;
#24 = ADVANCED_FACE ( 'NONE', ( #91, #63 ), #88, .T. ) ;
#25 = ORIENTED_EDGE ( 'NONE', *, *, #15, .F. ) ;
#26 = FACE_BOUND ( 'NONE', #28, .T. ) ;
#27 = FACE_OUTER_BOUND ( 'NONE', #32, .T. ) ;
#28 = EDGE_LOOP ( 'NONE', ( #68 ) ) ;
#29 = APPROVAL_DATE_TIME ( #30, #96 ) ;
#30 = DATE_AND_TIME ( #34, #38 ) ;
#31 = ORIENTED_EDGE ( 'NONE', *, *, #18, .T. ) ;
#32 = EDGE_LOOP ( 'NONE', ( #31 ) ) ;
#33 = ORIENTED_EDGE ( 'NONE', *, *, #13, .F. ) ;
#34 = CALENDAR_DATE ( 2016, 18, 3 ) ;
#35 = ORIENTED_EDGE ( 'NONE', *, *, #16, .T. ) ;
#36 = CLOSED_SHELL ( 'NONE', ( #9, #10, #23, #8, #24 ) ) ;
#37 = EDGE_LOOP ( 'NONE', ( #58 ) ) ;
#38 = LOCAL_TIME ( 9, 42, 0.0000000000000000000, #39 ) ;
#39 = COORDINATED_UNIVERSAL_TIME_OFFSET ( 2, 0, .AHEAD. ) ;
#40 = APPROVAL_PERSON_ORGANIZATION ( #41, #96, #171 ) ;
#41 = PERSON_AND_ORGANIZATION ( #1, #81 ) ;
#42 = DATE_AND_TIME ( #44, #45 ) ;
#43 = FACE_OUTER_BOUND ( 'NONE', #92, .T. ) ;
#44 = CALENDAR_DATE ( 2016, 18, 3 ) ;
#45 = LOCAL_TIME ( 9, 42, 0.0000000000000000000, #46 ) ;
#46 = COORDINATED_UNIVERSAL_TIME_OFFSET ( 2, 0, .AHEAD. ) ;
#47 = EDGE_LOOP ( 'NONE', ( #75 ) ) ;
#48 = PERSON_AND_ORGANIZATION ( #1, #81 ) ;
#49 = PERSON_AND_ORGANIZATION ( #1, #81 ) ;
#50 = PERSON_AND_ORGANIZATION ( #1, #81 ) ;
#51 = APPROVAL_DATE_TIME ( #53, #110 ) ;
#52 = FACE_OUTER_BOUND ( 'NONE', #47, .T. ) ;
#53 = DATE_AND_TIME ( #54, #55 ) ;
#54 = CALENDAR_DATE ( 2016, 18, 3 ) ;
#55 = LOCAL_TIME ( 9, 42, 0.0000000000000000000, #57 ) ;
#56 = EDGE_LOOP ( 'NONE', ( #25 ) ) ;
#57 = COORDINATED_UNIVERSAL_TIME_OFFSET ( 2, 0, .AHEAD. ) ;
#58 = ORIENTED_EDGE ( 'NONE', *, *, #13, .T. ) ;
#59 = APPROVAL_PERSON_ORGANIZATION ( #60, #110, #118 ) ;
#60 = PERSON_AND_ORGANIZATION ( #1, #81 ) ;
#61 = DATE_AND_TIME ( #62, #64 ) ;
#62 = CALENDAR_DATE ( 2016, 18, 3 ) ;
#63 = FACE_BOUND ( 'NONE', #56, .T. ) ;
#64 = LOCAL_TIME ( 9, 42, 0.0000000000000000000, #65 ) ;
#65 = COORDINATED_UNIVERSAL_TIME_OFFSET ( 2, 0, .AHEAD. ) ;
#66 = PERSON_AND_ORGANIZATION ( #1, #81 ) ;
#67 = FACE_OUTER_BOUND ( 'NONE', #37, .T. ) ;
#68 = ORIENTED_EDGE ( 'NONE', *, *, #18, .F. ) ;
#69 = ORIENTED_EDGE ( 'NONE', *, *, #16, .F. ) ;
#70 = APPROVAL_DATE_TIME ( #71, #102 ) ;
#71 = DATE_AND_TIME ( #73, #78 ) ;
#72 = FACE_OUTER_BOUND ( 'NONE', #93, .T. ) ;
#73 = CALENDAR_DATE ( 2016, 18, 3 ) ;
#74 = CYLINDRICAL_SURFACE ( 'NONE', #21, 30.00000000000000000 ) ;
#75 = ORIENTED_EDGE ( 'NONE', *, *, #15, .T. ) ;
#76 = APPROVAL_PERSON_ORGANIZATION ( #79, #102, #147 ) ;
#77 = COORDINATED_UNIVERSAL_TIME_OFFSET ( 2, 0, .AHEAD. ) ;
#78 = LOCAL_TIME ( 9, 42, 0.0000000000000000000, #77 ) ;
#79 = PERSON_AND_ORGANIZATION ( #1, #81 ) ;
#80 = PERSON_AND_ORGANIZATION ( #1, #81 ) ;
#81 = ORGANIZATION ( 'UNSPECIFIED', 'UNSPECIFIED', '' ) ;
#82 = SHAPE_DEFINITION_REPRESENTATION ( #7, #3 ) ;
#83 =( GEOMETRIC_REPRESENTATION_CONTEXT ( 3 ) GLOBAL_UNCERTAINTY_ASSIGNED_CONTEXT ( ( #4 ) ) GLOBAL_UNIT_ASSIGNED_CONTEXT ( ( #173, #116, #155 ) ) REPRESENTATION_CONTEXT ( 'NONE', 'WORKASPACE' ) );
#84 = CIRCLE ( 'NONE', #19, 30.00000000000000000 ) ;
#85 = CIRCLE ( 'NONE', #11, 29.49999999999874900 ) ;
#86 = EDGE_LOOP ( 'NONE', ( #33 ) ) ;
#87 = CONICAL_SURFACE ( 'NONE', #12, 30.00000000000000000, 0.7853981633972019200 ) ;
#88 = CONICAL_SURFACE ( 'NONE', #107, 29.49999999999874900, 0.7853981633971984800 ) ;
#89 = CIRCLE ( 'NONE', #22, 30.00000000000000000 ) ;
#90 = CIRCLE ( 'NONE', #17, 29.49999999999874600 ) ;
#91 = FACE_OUTER_BOUND ( 'NONE', #86, .T. ) ;
#92 = EDGE_LOOP ( 'NONE', ( #69 ) ) ;
#93 = EDGE_LOOP ( 'NONE', ( #35 ) ) ;
#94 = CC_DESIGN_PERSON_AND_ORGANIZATION_ASSIGNMENT ( #48, #149, ( #103 ) ) ;
#95 = CC_DESIGN_SECURITY_CLASSIFICATION ( #103, ( #112 ) ) ;
#96 = APPROVAL ( #158, 'UNSPECIFIED' ) ;
#97 = CC_DESIGN_PERSON_AND_ORGANIZATION_ASSIGNMENT ( #80, #163, ( #2 ) ) ;
#98 = CC_DESIGN_DATE_AND_TIME_ASSIGNMENT ( #61, #159, ( #109 ) ) ;
#99 = CC_DESIGN_APPROVAL ( #102, ( #109 ) ) ;
#100 = CC_DESIGN_PERSON_AND_ORGANIZATION_ASSIGNMENT ( #66, #174, ( #109 ) ) ;
#101 = CC_DESIGN_APPROVAL ( #96, ( #103 ) ) ;
#102 = APPROVAL ( #175, 'UNSPECIFIED' ) ;
#103 = SECURITY_CLASSIFICATION ( '', '', #138 ) ;
#104 = CC_DESIGN_DATE_AND_TIME_ASSIGNMENT ( #42, #143, ( #103 ) ) ;
#105 = CC_DESIGN_APPROVAL ( #110, ( #112 ) ) ;
#106 = PRODUCT_RELATED_PRODUCT_CATEGORY ( 'detail', '', ( #2 ) ) ;
#107 = AXIS2_PLACEMENT_3D ( 'NONE', #157, #132, #121 ) ;
#108 = CC_DESIGN_PERSON_AND_ORGANIZATION_ASSIGNMENT ( #50, #168, ( #112 ) ) ;
#109 = PRODUCT_DEFINITION ( 'UNKNOWN', '', #112, #6 ) ;
#110 = APPROVAL ( #119, 'UNSPECIFIED' ) ;
#111 = CC_DESIGN_PERSON_AND_ORGANIZATION_ASSIGNMENT ( #49, #127, ( #112 ) ) ;
#112 = PRODUCT_DEFINITION_FORMATION_WITH_SPECIFIED_SOURCE ( 'ANY', '', #2, .NOT_KNOWN. ) ;
#113 = AXIS2_PLACEMENT_3D ( 'NONE', #153, #165, #154 ) ;
#114 = CARTESIAN_POINT ( 'NONE',  ( -3000.000000000000000, 0.0000000000000000000, 0.0000000000000000000 ) ) ;
#115 = CARTESIAN_POINT ( 'NONE',  ( 2999.499999999998600, 0.0000000000000000000, -30.00000000000000000 ) ) ;
#116 =( NAMED_UNIT ( * ) PLANE_ANGLE_UNIT ( ) SI_UNIT ( $, .RADIAN. ) );
#117 = CARTESIAN_POINT ( 'NONE',  ( -3000.000000000000000, 0.0000000000000000000, 0.0000000000000000000 ) ) ;
#118 = APPROVAL_ROLE ( '' ) ;
#119 = APPROVAL_STATUS ( 'not_yet_approved' ) ;
#120 = DIRECTION ( 'NONE',  ( 1.000000000000000000, 0.0000000000000000000, 0.0000000000000000000 ) ) ;
#121 = DIRECTION ( 'NONE',  ( 0.0000000000000000000, 0.0000000000000000000, 1.000000000000000000 ) ) ;
#122 = CARTESIAN_POINT ( 'NONE',  ( 3000.000000000000000, 0.0000000000000000000, -29.49999999999874900 ) ) ;
#123 = DIRECTION ( 'NONE',  ( 0.0000000000000000000, 0.0000000000000000000, -1.000000000000000000 ) ) ;
#124 = DIRECTION ( 'NONE',  ( -1.000000000000000000, -0.0000000000000000000, -0.0000000000000000000 ) ) ;
#125 = PLANE ( 'NONE',  #14 ) ;
#126 = CARTESIAN_POINT ( 'NONE',  ( 3000.000000000000000, 0.0000000000000000000, 0.0000000000000000000 ) ) ;
#127 = PERSON_AND_ORGANIZATION_ROLE ( 'design_supplier' ) ;
#128 = DIRECTION ( 'NONE',  ( 0.0000000000000000000, 0.0000000000000000000, -1.000000000000000000 ) ) ;
#129 = APPLICATION_CONTEXT ( 'configuration controlled 3d designs of mechanical parts and assemblies' ) ;
#130 = DIRECTION ( 'NONE',  ( 1.000000000000000000, -0.0000000000000000000, -0.0000000000000000000 ) ) ;
#131 = APPLICATION_PROTOCOL_DEFINITION ( 'international standard', 'config_control_design', 1994, #129 ) ;
#132 = DIRECTION ( 'NONE',  ( -1.000000000000000000, 0.0000000000000000000, 0.0000000000000000000 ) ) ;
#133 = DIRECTION ( 'NONE',  ( 0.0000000000000000000, 0.0000000000000000000, -1.000000000000000000 ) ) ;
#134 = CARTESIAN_POINT ( 'NONE',  ( -3000.000000000000000, 0.0000000000000000000, 0.0000000000000000000 ) ) ;
#135 = PLANE ( 'NONE',  #20 ) ;
#136 = CARTESIAN_POINT ( 'NONE',  ( 3000.000000000000000, 0.0000000000000000000, 0.0000000000000000000 ) ) ;
#137 = DIRECTION ( 'NONE',  ( 1.000000000000000000, 0.0000000000000000000, 0.0000000000000000000 ) ) ;
#138 = SECURITY_CLASSIFICATION_LEVEL ( 'unclassified' ) ;
#139 = DIRECTION ( 'NONE',  ( 0.0000000000000000000, 0.0000000000000000000, -1.000000000000000000 ) ) ;
#140 = CARTESIAN_POINT ( 'NONE',  ( 2999.499999999998600, 0.0000000000000000000, 0.0000000000000000000 ) ) ;
#141 = DIRECTION ( 'NONE',  ( 0.0000000000000000000, 0.0000000000000000000, -1.000000000000000000 ) ) ;
#142 = DIRECTION ( 'NONE',  ( 1.000000000000000000, 0.0000000000000000000, 0.0000000000000000000 ) ) ;
#143 = DATE_TIME_ROLE ( 'classification_date' ) ;
#144 = DIRECTION ( 'NONE',  ( -1.000000000000000000, 0.0000000000000000000, 0.0000000000000000000 ) ) ;
#145 = DIRECTION ( 'NONE',  ( 0.0000000000000000000, 0.0000000000000000000, -1.000000000000000000 ) ) ;
#146 = DIRECTION ( 'NONE',  ( 0.0000000000000000000, 0.0000000000000000000, -1.000000000000000000 ) ) ;
#147 = APPROVAL_ROLE ( '' ) ;
#148 = VERTEX_POINT ( 'NONE', #169 ) ;
#149 = PERSON_AND_ORGANIZATION_ROLE ( 'classification_officer' ) ;
#150 = DIRECTION ( 'NONE',  ( 1.000000000000000000, -0.0000000000000000000, -0.0000000000000000000 ) ) ;
#151 = VERTEX_POINT ( 'NONE', #122 ) ;
#152 = VERTEX_POINT ( 'NONE', #115 ) ;
#153 = CARTESIAN_POINT ( 'NONE',  ( 0.0000000000000000000, 0.0000000000000000000, 0.0000000000000000000 ) ) ;
#154 = DIRECTION ( 'NONE',  ( 1.000000000000000000, 0.0000000000000000000, 0.0000000000000000000 ) ) ;
#155 =( NAMED_UNIT ( * ) SI_UNIT ( $, .STERADIAN. ) SOLID_ANGLE_UNIT ( ) );
#156 = CARTESIAN_POINT ( 'NONE',  ( -2999.499999999998600, 0.0000000000000000000, 0.0000000000000000000 ) ) ;
#157 = CARTESIAN_POINT ( 'NONE',  ( 3000.000000000000000, 0.0000000000000000000, 0.0000000000000000000 ) ) ;
#158 = APPROVAL_STATUS ( 'not_yet_approved' ) ;
#159 = DATE_TIME_ROLE ( 'creation_date' ) ;
#160 = APPLICATION_CONTEXT ( 'configuration controlled 3d designs of mechanical parts and assemblies' ) ;
#161 = APPLICATION_PROTOCOL_DEFINITION ( 'international standard', 'config_control_design', 1994, #160 ) ;
#162 = MECHANICAL_CONTEXT ( 'NONE', #160, 'mechanical' ) ;
#163 = PERSON_AND_ORGANIZATION_ROLE ( 'design_owner' ) ;
#164 = DIRECTION ( 'NONE',  ( 0.0000000000000000000, 0.0000000000000000000, -1.000000000000000000 ) ) ;
#165 = DIRECTION ( 'NONE',  ( 0.0000000000000000000, 0.0000000000000000000, 1.000000000000000000 ) ) ;
#166 = CARTESIAN_POINT ( 'NONE',  ( -2999.499999999998600, 0.0000000000000000000, 0.0000000000000000000 ) ) ;
#167 = DIRECTION ( 'NONE',  ( 1.000000000000000000, 0.0000000000000000000, 0.0000000000000000000 ) ) ;
#168 = PERSON_AND_ORGANIZATION_ROLE ( 'creator' ) ;
#169 = CARTESIAN_POINT ( 'NONE',  ( -2999.499999999998600, 0.0000000000000000000, -30.00000000000000000 ) ) ;
#170 = VERTEX_POINT ( 'NONE', #172 ) ;
#171 = APPROVAL_ROLE ( '' ) ;
#172 = CARTESIAN_POINT ( 'NONE',  ( -3000.000000000000000, 0.0000000000000000000, -29.49999999999874600 ) ) ;
#173 =( LENGTH_UNIT ( ) NAMED_UNIT ( * ) SI_UNIT ( .MILLI., .METRE. ) );
#174 = PERSON_AND_ORGANIZATION_ROLE ( 'creator' ) ;
#175 = APPROVAL_STATUS ( 'not_yet_approved' ) ;
ENDSEC;
END-ISO-10303-21;
