ISO-10303-21;
HEADER;
FILE_DESCRIPTION (( 'STEP AP203' ),
    '1' );
FILE_NAME ('SF50.STEP',
    '2016-03-18T07:41:33',
    ( '' ),
    ( '' ),
    'SwSTEP 2.0',
    'SolidWorks 2010',
    '' );
FILE_SCHEMA (( 'CONFIG_CONTROL_DESIGN' ));
ENDSEC;

DATA;
#1 = PRODUCT ( 'SF50', 'SF50', '', ( #159 ) ) ;
#2 = PERSON ( 'UNSPECIFIED', 'UNSPECIFIED', 'UNSPECIFIED', ('UNSPECIFIED'), ('UNSPECIFIED'), ('UNSPECIFIED') ) ;
#3 = MANIFOLD_SOLID_BREP ( 'Chamfer1', #110 ) ;
#4 = ADVANCED_BREP_SHAPE_REPRESENTATION ( 'SF50', ( #3, #41 ), #85 ) ;
#5 = UNCERTAINTY_MEASURE_WITH_UNIT (LENGTH_MEASURE( 1.000000000000000100E-005 ), #152, 'distance_accuracy_value', 'NONE');
#6 = DESIGN_CONTEXT ( 'detailed design', #161, 'design' ) ;
#7 = PRODUCT_DEFINITION_SHAPE ( 'NONE', 'NONE',  #15 ) ;
#8 = ADVANCED_FACE ( 'NONE', ( #73 ), #121, .F. ) ;
#9 = ADVANCED_FACE ( 'NONE', ( #77, #51 ), #72, .T. ) ;
#10 = ADVANCED_FACE ( 'NONE', ( #50 ), #115, .T. ) ;
#11 = ADVANCED_FACE ( 'NONE', ( #67, #66 ), #68, .T. ) ;
#12 = ADVANCED_FACE ( 'NONE', ( #69, #61 ), #65, .T. ) ;
#13 = AXIS2_PLACEMENT_3D ( 'NONE', #126, #129, #133 ) ;
#14 = CC_DESIGN_APPROVAL ( #22, ( #20 ) ) ;
#15 = PRODUCT_DEFINITION ( 'UNKNOWN', '', #31, #6 ) ;
#16 = AXIS2_PLACEMENT_3D ( 'NONE', #118, #135, #124 ) ;
#17 = AXIS2_PLACEMENT_3D ( 'NONE', #134, #131, #132 ) ;
#18 = AXIS2_PLACEMENT_3D ( 'NONE', #127, #140, #141 ) ;
#19 = AXIS2_PLACEMENT_3D ( 'NONE', #128, #143, #144 ) ;
#20 = SECURITY_CLASSIFICATION ( '', '', #171 ) ;
#21 = EDGE_CURVE ( 'NONE', #146, #146, #63, .T. ) ;
#22 = APPROVAL ( #174, 'UNSPECIFIED' ) ;
#23 = EDGE_CURVE ( 'NONE', #145, #145, #46, .T. ) ;
#24 = APPROVAL ( #163, 'UNSPECIFIED' ) ;
#25 = CC_DESIGN_APPROVAL ( #24, ( #15 ) ) ;
#26 = CC_DESIGN_DATE_AND_TIME_ASSIGNMENT ( #71, #166, ( #15 ) ) ;
#27 = AXIS2_PLACEMENT_3D ( 'NONE', #125, #122, #130 ) ;
#28 = EDGE_CURVE ( 'NONE', #148, #148, #78, .T. ) ;
#29 = AXIS2_PLACEMENT_3D ( 'NONE', #116, #136, #138 ) ;
#30 = PRODUCT_RELATED_PRODUCT_CATEGORY ( 'detail', '', ( #1 ) ) ;
#31 = PRODUCT_DEFINITION_FORMATION_WITH_SPECIFIED_SOURCE ( 'ANY', '', #1, .NOT_KNOWN. ) ;
#32 = CC_DESIGN_DATE_AND_TIME_ASSIGNMENT ( #94, #173, ( #20 ) ) ;
#33 = CC_DESIGN_PERSON_AND_ORGANIZATION_ASSIGNMENT ( #88, #160, ( #1 ) ) ;
#34 = CC_DESIGN_PERSON_AND_ORGANIZATION_ASSIGNMENT ( #82, #169, ( #31 ) ) ;
#35 = CC_DESIGN_PERSON_AND_ORGANIZATION_ASSIGNMENT ( #89, #172, ( #20 ) ) ;
#36 = AXIS2_PLACEMENT_3D ( 'NONE', #117, #123, #120 ) ;
#37 = CC_DESIGN_APPROVAL ( #40, ( #31 ) ) ;
#38 = AXIS2_PLACEMENT_3D ( 'NONE', #137, #114, #119 ) ;
#39 = CC_DESIGN_SECURITY_CLASSIFICATION ( #20, ( #31 ) ) ;
#40 = APPROVAL ( #167, 'UNSPECIFIED' ) ;
#41 = AXIS2_PLACEMENT_3D ( 'NONE', #155, #139, #156 ) ;
#42 = CC_DESIGN_PERSON_AND_ORGANIZATION_ASSIGNMENT ( #108, #165, ( #15 ) ) ;
#43 = EDGE_CURVE ( 'NONE', #150, #150, #79, .T. ) ;
#44 = CC_DESIGN_PERSON_AND_ORGANIZATION_ASSIGNMENT ( #86, #170, ( #31 ) ) ;
#45 = ORIENTED_EDGE ( 'NONE', *, *, #21, .F. ) ;
#46 = CIRCLE ( 'NONE', #29, 24.49999999999974400 ) ;
#47 = ORIENTED_EDGE ( 'NONE', *, *, #21, .T. ) ;
#48 = ORIENTED_EDGE ( 'NONE', *, *, #43, .T. ) ;
#49 = ORIENTED_EDGE ( 'NONE', *, *, #23, .F. ) ;
#50 = FACE_OUTER_BOUND ( 'NONE', #80, .T. ) ;
#51 = FACE_BOUND ( 'NONE', #76, .T. ) ;
#52 = ORIENTED_EDGE ( 'NONE', *, *, #28, .F. ) ;
#53 = ORIENTED_EDGE ( 'NONE', *, *, #43, .F. ) ;
#54 = EDGE_LOOP ( 'NONE', ( #59 ) ) ;
#55 = EDGE_LOOP ( 'NONE', ( #53 ) ) ;
#56 = LOCAL_TIME ( 9, 41, 33.00000000000000000, #112 ) ;
#57 = ORIENTED_EDGE ( 'NONE', *, *, #28, .T. ) ;
#58 = EDGE_LOOP ( 'NONE', ( #49 ) ) ;
#59 = ORIENTED_EDGE ( 'NONE', *, *, #23, .T. ) ;
#60 = EDGE_LOOP ( 'NONE', ( #48 ) ) ;
#61 = FACE_OUTER_BOUND ( 'NONE', #60, .T. ) ;
#62 = CALENDAR_DATE ( 2016, 18, 3 ) ;
#63 = CIRCLE ( 'NONE', #17, 25.00000000000000000 ) ;
#64 = DATE_AND_TIME ( #62, #56 ) ;
#65 = CYLINDRICAL_SURFACE ( 'NONE', #36, 25.00000000000000000 ) ;
#66 = FACE_OUTER_BOUND ( 'NONE', #75, .T. ) ;
#67 = FACE_BOUND ( 'NONE', #58, .T. ) ;
#68 = CONICAL_SURFACE ( 'NONE', #27, 25.00000000000000000, 0.7853981633975385400 ) ;
#69 = FACE_OUTER_BOUND ( 'NONE', #74, .T. ) ;
#70 = PERSON_AND_ORGANIZATION ( #2, #87 ) ;
#71 = DATE_AND_TIME ( #83, #111 ) ;
#72 = CONICAL_SURFACE ( 'NONE', #16, 24.49999999999886000, 0.7853981633979791900 ) ;
#73 = FACE_OUTER_BOUND ( 'NONE', #54, .T. ) ;
#74 = EDGE_LOOP ( 'NONE', ( #47 ) ) ;
#75 = EDGE_LOOP ( 'NONE', ( #45 ) ) ;
#76 = EDGE_LOOP ( 'NONE', ( #52 ) ) ;
#77 = FACE_OUTER_BOUND ( 'NONE', #55, .T. ) ;
#78 = CIRCLE ( 'NONE', #18, 24.49999999999886000 ) ;
#79 = CIRCLE ( 'NONE', #19, 25.00000000000000000 ) ;
#80 = EDGE_LOOP ( 'NONE', ( #57 ) ) ;
#81 = APPROVAL_DATE_TIME ( #64, #40 ) ;
#82 = PERSON_AND_ORGANIZATION ( #2, #87 ) ;
#83 = CALENDAR_DATE ( 2016, 18, 3 ) ;
#84 = SHAPE_DEFINITION_REPRESENTATION ( #7, #4 ) ;
#85 =( GEOMETRIC_REPRESENTATION_CONTEXT ( 3 ) GLOBAL_UNCERTAINTY_ASSIGNED_CONTEXT ( ( #5 ) ) GLOBAL_UNIT_ASSIGNED_CONTEXT ( ( #152, #153, #154 ) ) REPRESENTATION_CONTEXT ( 'NONE', 'WORKASPACE' ) );
#86 = PERSON_AND_ORGANIZATION ( #2, #87 ) ;
#87 = ORGANIZATION ( 'UNSPECIFIED', 'UNSPECIFIED', '' ) ;
#88 = PERSON_AND_ORGANIZATION ( #2, #87 ) ;
#89 = PERSON_AND_ORGANIZATION ( #2, #87 ) ;
#90 = COORDINATED_UNIVERSAL_TIME_OFFSET ( 2, 0, .AHEAD. ) ;
#91 = PERSON_AND_ORGANIZATION ( #2, #87 ) ;
#92 = LOCAL_TIME ( 9, 41, 33.00000000000000000, #90 ) ;
#93 = CALENDAR_DATE ( 2016, 18, 3 ) ;
#94 = DATE_AND_TIME ( #93, #92 ) ;
#95 = PERSON_AND_ORGANIZATION ( #2, #87 ) ;
#96 = APPROVAL_PERSON_ORGANIZATION ( #95, #22, #175 ) ;
#97 = APPROVAL_PERSON_ORGANIZATION ( #91, #24, #164 ) ;
#98 = COORDINATED_UNIVERSAL_TIME_OFFSET ( 2, 0, .AHEAD. ) ;
#99 = LOCAL_TIME ( 9, 41, 33.00000000000000000, #98 ) ;
#100 = CALENDAR_DATE ( 2016, 18, 3 ) ;
#101 = DATE_AND_TIME ( #100, #99 ) ;
#102 = APPROVAL_DATE_TIME ( #101, #22 ) ;
#103 = COORDINATED_UNIVERSAL_TIME_OFFSET ( 2, 0, .AHEAD. ) ;
#104 = LOCAL_TIME ( 9, 41, 33.00000000000000000, #103 ) ;
#105 = CALENDAR_DATE ( 2016, 18, 3 ) ;
#106 = DATE_AND_TIME ( #105, #104 ) ;
#107 = APPROVAL_DATE_TIME ( #106, #24 ) ;
#108 = PERSON_AND_ORGANIZATION ( #2, #87 ) ;
#109 = COORDINATED_UNIVERSAL_TIME_OFFSET ( 2, 0, .AHEAD. ) ;
#110 = CLOSED_SHELL ( 'NONE', ( #12, #8, #10, #11, #9 ) ) ;
#111 = LOCAL_TIME ( 9, 41, 33.00000000000000000, #109 ) ;
#112 = COORDINATED_UNIVERSAL_TIME_OFFSET ( 2, 0, .AHEAD. ) ;
#113 = APPROVAL_PERSON_ORGANIZATION ( #70, #40, #168 ) ;
#114 = DIRECTION ( 'NONE',  ( 1.000000000000000000, 0.0000000000000000000, 0.0000000000000000000 ) ) ;
#115 = PLANE ( 'NONE',  #13 ) ;
#116 = CARTESIAN_POINT ( 'NONE',  ( -3000.000000000000000, 0.0000000000000000000, 0.0000000000000000000 ) ) ;
#117 = CARTESIAN_POINT ( 'NONE',  ( -3000.000000000000000, 0.0000000000000000000, 0.0000000000000000000 ) ) ;
#118 = CARTESIAN_POINT ( 'NONE',  ( 3000.000000000000000, 0.0000000000000000000, 0.0000000000000000000 ) ) ;
#119 = DIRECTION ( 'NONE',  ( 0.0000000000000000000, 0.0000000000000000000, -1.000000000000000000 ) ) ;
#120 = DIRECTION ( 'NONE',  ( 0.0000000000000000000, 0.0000000000000000000, -1.000000000000000000 ) ) ;
#121 = PLANE ( 'NONE',  #38 ) ;
#122 = DIRECTION ( 'NONE',  ( 1.000000000000000000, -0.0000000000000000000, -0.0000000000000000000 ) ) ;
#123 = DIRECTION ( 'NONE',  ( 1.000000000000000000, 0.0000000000000000000, 0.0000000000000000000 ) ) ;
#124 = DIRECTION ( 'NONE',  ( 0.0000000000000000000, 0.0000000000000000000, 1.000000000000000000 ) ) ;
#125 = CARTESIAN_POINT ( 'NONE',  ( -2999.500000000000000, 0.0000000000000000000, 0.0000000000000000000 ) ) ;
#126 = CARTESIAN_POINT ( 'NONE',  ( 3000.000000000000000, 0.0000000000000000000, 0.0000000000000000000 ) ) ;
#127 = CARTESIAN_POINT ( 'NONE',  ( 3000.000000000000000, 0.0000000000000000000, 0.0000000000000000000 ) ) ;
#128 = CARTESIAN_POINT ( 'NONE',  ( 2999.499999999999500, 0.0000000000000000000, 0.0000000000000000000 ) ) ;
#129 = DIRECTION ( 'NONE',  ( 1.000000000000000000, 0.0000000000000000000, 0.0000000000000000000 ) ) ;
#130 = DIRECTION ( 'NONE',  ( 0.0000000000000000000, 0.0000000000000000000, -1.000000000000000000 ) ) ;
#131 = DIRECTION ( 'NONE',  ( 1.000000000000000000, -0.0000000000000000000, -0.0000000000000000000 ) ) ;
#132 = DIRECTION ( 'NONE',  ( 0.0000000000000000000, 0.0000000000000000000, -1.000000000000000000 ) ) ;
#133 = DIRECTION ( 'NONE',  ( 0.0000000000000000000, 0.0000000000000000000, -1.000000000000000000 ) ) ;
#134 = CARTESIAN_POINT ( 'NONE',  ( -2999.500000000000000, 0.0000000000000000000, 0.0000000000000000000 ) ) ;
#135 = DIRECTION ( 'NONE',  ( -1.000000000000000000, 0.0000000000000000000, 0.0000000000000000000 ) ) ;
#136 = DIRECTION ( 'NONE',  ( -1.000000000000000000, -0.0000000000000000000, -0.0000000000000000000 ) ) ;
#137 = CARTESIAN_POINT ( 'NONE',  ( -3000.000000000000000, 0.0000000000000000000, 0.0000000000000000000 ) ) ;
#138 = DIRECTION ( 'NONE',  ( 0.0000000000000000000, 0.0000000000000000000, -1.000000000000000000 ) ) ;
#139 = DIRECTION ( 'NONE',  ( 0.0000000000000000000, 0.0000000000000000000, 1.000000000000000000 ) ) ;
#140 = DIRECTION ( 'NONE',  ( 1.000000000000000000, 0.0000000000000000000, 0.0000000000000000000 ) ) ;
#141 = DIRECTION ( 'NONE',  ( 0.0000000000000000000, 0.0000000000000000000, -1.000000000000000000 ) ) ;
#142 = CARTESIAN_POINT ( 'NONE',  ( -3000.000000000000000, 0.0000000000000000000, -24.49999999999974400 ) ) ;
#143 = DIRECTION ( 'NONE',  ( -1.000000000000000000, 0.0000000000000000000, 0.0000000000000000000 ) ) ;
#144 = DIRECTION ( 'NONE',  ( 0.0000000000000000000, 0.0000000000000000000, -1.000000000000000000 ) ) ;
#145 = VERTEX_POINT ( 'NONE', #142 ) ;
#146 = VERTEX_POINT ( 'NONE', #147 ) ;
#147 = CARTESIAN_POINT ( 'NONE',  ( -2999.500000000000000, 0.0000000000000000000, -25.00000000000000000 ) ) ;
#148 = VERTEX_POINT ( 'NONE', #149 ) ;
#149 = CARTESIAN_POINT ( 'NONE',  ( 3000.000000000000000, 0.0000000000000000000, -24.49999999999886000 ) ) ;
#150 = VERTEX_POINT ( 'NONE', #151 ) ;
#151 = CARTESIAN_POINT ( 'NONE',  ( 2999.499999999999500, 0.0000000000000000000, -25.00000000000000000 ) ) ;
#152 =( LENGTH_UNIT ( ) NAMED_UNIT ( * ) SI_UNIT ( .MILLI., .METRE. ) );
#153 =( NAMED_UNIT ( * ) PLANE_ANGLE_UNIT ( ) SI_UNIT ( $, .RADIAN. ) );
#154 =( NAMED_UNIT ( * ) SI_UNIT ( $, .STERADIAN. ) SOLID_ANGLE_UNIT ( ) );
#155 = CARTESIAN_POINT ( 'NONE',  ( 0.0000000000000000000, 0.0000000000000000000, 0.0000000000000000000 ) ) ;
#156 = DIRECTION ( 'NONE',  ( 1.000000000000000000, 0.0000000000000000000, 0.0000000000000000000 ) ) ;
#157 = APPLICATION_CONTEXT ( 'configuration controlled 3d designs of mechanical parts and assemblies' ) ;
#158 = APPLICATION_PROTOCOL_DEFINITION ( 'international standard', 'config_control_design', 1994, #157 ) ;
#159 = MECHANICAL_CONTEXT ( 'NONE', #157, 'mechanical' ) ;
#160 = PERSON_AND_ORGANIZATION_ROLE ( 'design_owner' ) ;
#161 = APPLICATION_CONTEXT ( 'configuration controlled 3d designs of mechanical parts and assemblies' ) ;
#162 = APPLICATION_PROTOCOL_DEFINITION ( 'international standard', 'config_control_design', 1994, #161 ) ;
#163 = APPROVAL_STATUS ( 'not_yet_approved' ) ;
#164 = APPROVAL_ROLE ( '' ) ;
#165 = PERSON_AND_ORGANIZATION_ROLE ( 'creator' ) ;
#166 = DATE_TIME_ROLE ( 'creation_date' ) ;
#167 = APPROVAL_STATUS ( 'not_yet_approved' ) ;
#168 = APPROVAL_ROLE ( '' ) ;
#169 = PERSON_AND_ORGANIZATION_ROLE ( 'creator' ) ;
#170 = PERSON_AND_ORGANIZATION_ROLE ( 'design_supplier' ) ;
#171 = SECURITY_CLASSIFICATION_LEVEL ( 'unclassified' ) ;
#172 = PERSON_AND_ORGANIZATION_ROLE ( 'classification_officer' ) ;
#173 = DATE_TIME_ROLE ( 'classification_date' ) ;
#174 = APPROVAL_STATUS ( 'not_yet_approved' ) ;
#175 = APPROVAL_ROLE ( '' ) ;
ENDSEC;
END-ISO-10303-21;
