ISO-10303-21;
HEADER;
FILE_DESCRIPTION (( 'STEP AP203' ),
    '1' );
FILE_NAME ('SF40.STEP',
    '2016-03-18T07:41:12',
    ( '' ),
    ( '' ),
    'SwSTEP 2.0',
    'SolidWorks 2010',
    '' );
FILE_SCHEMA (( 'CONFIG_CONTROL_DESIGN' ));
ENDSEC;

DATA;
#1 = PRODUCT ( 'SF40', 'SF40', '', ( #168 ) ) ;
#2 = PERSON ( 'UNSPECIFIED', 'UNSPECIFIED', 'UNSPECIFIED', ('UNSPECIFIED'), ('UNSPECIFIED'), ('UNSPECIFIED') ) ;
#3 = ADVANCED_BREP_SHAPE_REPRESENTATION ( 'SF40', ( #4, #99 ), #54 ) ;
#4 = MANIFOLD_SOLID_BREP ( 'Chamfer1', #47 ) ;
#5 = UNCERTAINTY_MEASURE_WITH_UNIT (LENGTH_MEASURE( 1.000000000000000100E-005 ), #165, 'distance_accuracy_value', 'NONE');
#6 = PRODUCT_DEFINITION_SHAPE ( 'NONE', 'NONE',  #97 ) ;
#7 = DESIGN_CONTEXT ( 'detailed design', #119, 'design' ) ;
#8 = ADVANCED_FACE ( 'NONE', ( #42 ), #136, .T. ) ;
#9 = ADVANCED_FACE ( 'NONE', ( #38, #44 ), #36, .T. ) ;
#10 = ADVANCED_FACE ( 'NONE', ( #46, #31 ), #29, .T. ) ;
#11 = CC_DESIGN_APPROVAL ( #13, ( #112 ) ) ;
#12 = CC_DESIGN_DATE_AND_TIME_ASSIGNMENT ( #49, #135, ( #112 ) ) ;
#13 = APPROVAL ( #172, 'UNSPECIFIED' ) ;
#14 = PRODUCT_RELATED_PRODUCT_CATEGORY ( 'detail', '', ( #1 ) ) ;
#15 = CC_DESIGN_PERSON_AND_ORGANIZATION_ASSIGNMENT ( #83, #162, ( #112 ) ) ;
#16 = CC_DESIGN_SECURITY_CLASSIFICATION ( #112, ( #92 ) ) ;
#17 = ADVANCED_FACE ( 'NONE', ( #35, #27 ), #25, .T. ) ;
#18 = ADVANCED_FACE ( 'NONE', ( #30 ), #130, .F. ) ;
#19 = ORIENTED_EDGE ( 'NONE', *, *, #104, .T. ) ;
#20 = CIRCLE ( 'NONE', #105, 19.49999999999985100 ) ;
#21 = ORIENTED_EDGE ( 'NONE', *, *, #104, .F. ) ;
#22 = EDGE_LOOP ( 'NONE', ( #52 ) ) ;
#23 = CIRCLE ( 'NONE', #109, 19.49999999999985100 ) ;
#24 = EDGE_LOOP ( 'NONE', ( #59 ) ) ;
#25 = CONICAL_SURFACE ( 'NONE', #103, 19.49999999999985100, 0.7853981633969869800 ) ;
#26 = ORIENTED_EDGE ( 'NONE', *, *, #108, .F. ) ;
#27 = FACE_BOUND ( 'NONE', #51, .T. ) ;
#28 = COORDINATED_UNIVERSAL_TIME_OFFSET ( 2, 0, .AHEAD. ) ;
#29 = CYLINDRICAL_SURFACE ( 'NONE', #106, 20.00000000000000000 ) ;
#30 = FACE_OUTER_BOUND ( 'NONE', #58, .T. ) ;
#31 = FACE_OUTER_BOUND ( 'NONE', #24, .T. ) ;
#32 = ORIENTED_EDGE ( 'NONE', *, *, #107, .F. ) ;
#33 = PERSON_AND_ORGANIZATION ( #2, #56 ) ;
#34 = ORIENTED_EDGE ( 'NONE', *, *, #111, .F. ) ;
#35 = FACE_OUTER_BOUND ( 'NONE', #39, .T. ) ;
#36 = CONICAL_SURFACE ( 'NONE', #110, 20.00000000000000000, 0.7853981633974309600 ) ;
#37 = EDGE_LOOP ( 'NONE', ( #32 ) ) ;
#38 = FACE_BOUND ( 'NONE', #37, .T. ) ;
#39 = EDGE_LOOP ( 'NONE', ( #26 ) ) ;
#40 = CALENDAR_DATE ( 2016, 18, 3 ) ;
#41 = CIRCLE ( 'NONE', #100, 20.00000000000000000 ) ;
#42 = FACE_OUTER_BOUND ( 'NONE', #50, .T. ) ;
#43 = CIRCLE ( 'NONE', #101, 20.00000000000000000 ) ;
#44 = FACE_OUTER_BOUND ( 'NONE', #60, .T. ) ;
#45 = APPROVAL_PERSON_ORGANIZATION ( #53, #13, #146 ) ;
#46 = FACE_OUTER_BOUND ( 'NONE', #22, .T. ) ;
#47 = CLOSED_SHELL ( 'NONE', ( #10, #18, #8, #9, #17 ) ) ;
#48 = LOCAL_TIME ( 9, 41, 12.00000000000000000, #28 ) ;
#49 = DATE_AND_TIME ( #87, #86 ) ;
#50 = EDGE_LOOP ( 'NONE', ( #19 ) ) ;
#51 = EDGE_LOOP ( 'NONE', ( #21 ) ) ;
#52 = ORIENTED_EDGE ( 'NONE', *, *, #111, .T. ) ;
#53 = PERSON_AND_ORGANIZATION ( #2, #56 ) ;
#54 =( GEOMETRIC_REPRESENTATION_CONTEXT ( 3 ) GLOBAL_UNCERTAINTY_ASSIGNED_CONTEXT ( ( #5 ) ) GLOBAL_UNIT_ASSIGNED_CONTEXT ( ( #165, #150, #151 ) ) REPRESENTATION_CONTEXT ( 'NONE', 'WORKASPACE' ) );
#55 = SHAPE_DEFINITION_REPRESENTATION ( #6, #3 ) ;
#56 = ORGANIZATION ( 'UNSPECIFIED', 'UNSPECIFIED', '' ) ;
#57 = PERSON_AND_ORGANIZATION ( #2, #56 ) ;
#58 = EDGE_LOOP ( 'NONE', ( #85 ) ) ;
#59 = ORIENTED_EDGE ( 'NONE', *, *, #108, .T. ) ;
#60 = EDGE_LOOP ( 'NONE', ( #34 ) ) ;
#61 = DATE_AND_TIME ( #40, #48 ) ;
#62 = APPROVAL_PERSON_ORGANIZATION ( #33, #96, #160 ) ;
#63 = COORDINATED_UNIVERSAL_TIME_OFFSET ( 2, 0, .AHEAD. ) ;
#64 = APPROVAL_DATE_TIME ( #61, #13 ) ;
#65 = LOCAL_TIME ( 9, 41, 12.00000000000000000, #63 ) ;
#66 = CALENDAR_DATE ( 2016, 18, 3 ) ;
#67 = DATE_AND_TIME ( #66, #65 ) ;
#68 = APPROVAL_DATE_TIME ( #67, #96 ) ;
#69 = PERSON_AND_ORGANIZATION ( #2, #56 ) ;
#70 = COORDINATED_UNIVERSAL_TIME_OFFSET ( 2, 0, .AHEAD. ) ;
#71 = CALENDAR_DATE ( 2016, 18, 3 ) ;
#72 = LOCAL_TIME ( 9, 41, 12.00000000000000000, #70 ) ;
#73 = DATE_AND_TIME ( #71, #72 ) ;
#74 = PERSON_AND_ORGANIZATION ( #2, #56 ) ;
#75 = APPROVAL_PERSON_ORGANIZATION ( #74, #91, #118 ) ;
#76 = COORDINATED_UNIVERSAL_TIME_OFFSET ( 2, 0, .AHEAD. ) ;
#77 = LOCAL_TIME ( 9, 41, 12.00000000000000000, #76 ) ;
#78 = CALENDAR_DATE ( 2016, 18, 3 ) ;
#79 = DATE_AND_TIME ( #78, #77 ) ;
#80 = APPROVAL_DATE_TIME ( #79, #91 ) ;
#81 = PERSON_AND_ORGANIZATION ( #2, #56 ) ;
#82 = PERSON_AND_ORGANIZATION ( #2, #56 ) ;
#83 = PERSON_AND_ORGANIZATION ( #2, #56 ) ;
#84 = COORDINATED_UNIVERSAL_TIME_OFFSET ( 2, 0, .AHEAD. ) ;
#85 = ORIENTED_EDGE ( 'NONE', *, *, #107, .T. ) ;
#86 = LOCAL_TIME ( 9, 41, 12.00000000000000000, #84 ) ;
#87 = CALENDAR_DATE ( 2016, 18, 3 ) ;
#88 = CC_DESIGN_PERSON_AND_ORGANIZATION_ASSIGNMENT ( #82, #145, ( #92 ) ) ;
#89 = CC_DESIGN_PERSON_AND_ORGANIZATION_ASSIGNMENT ( #81, #139, ( #92 ) ) ;
#90 = CC_DESIGN_APPROVAL ( #91, ( #92 ) ) ;
#91 = APPROVAL ( #149, 'UNSPECIFIED' ) ;
#92 = PRODUCT_DEFINITION_FORMATION_WITH_SPECIFIED_SOURCE ( 'ANY', '', #1, .NOT_KNOWN. ) ;
#93 = CC_DESIGN_DATE_AND_TIME_ASSIGNMENT ( #73, #117, ( #97 ) ) ;
#94 = CC_DESIGN_PERSON_AND_ORGANIZATION_ASSIGNMENT ( #69, #175, ( #97 ) ) ;
#95 = CC_DESIGN_APPROVAL ( #96, ( #97 ) ) ;
#96 = APPROVAL ( #143, 'UNSPECIFIED' ) ;
#97 = PRODUCT_DEFINITION ( 'UNKNOWN', '', #92, #7 ) ;
#98 = CC_DESIGN_PERSON_AND_ORGANIZATION_ASSIGNMENT ( #57, #169, ( #1 ) ) ;
#99 = AXIS2_PLACEMENT_3D ( 'NONE', #152, #173, #153 ) ;
#100 = AXIS2_PLACEMENT_3D ( 'NONE', #124, #131, #170 ) ;
#101 = AXIS2_PLACEMENT_3D ( 'NONE', #121, #128, #164 ) ;
#102 = AXIS2_PLACEMENT_3D ( 'NONE', #148, #159, #127 ) ;
#103 = AXIS2_PLACEMENT_3D ( 'NONE', #174, #142, #133 ) ;
#104 = EDGE_CURVE ( 'NONE', #156, #156, #20, .T. ) ;
#105 = AXIS2_PLACEMENT_3D ( 'NONE', #163, #129, #123 ) ;
#106 = AXIS2_PLACEMENT_3D ( 'NONE', #132, #116, #122 ) ;
#107 = EDGE_CURVE ( 'NONE', #158, #158, #23, .T. ) ;
#108 = EDGE_CURVE ( 'NONE', #138, #138, #41, .T. ) ;
#109 = AXIS2_PLACEMENT_3D ( 'NONE', #126, #154, #157 ) ;
#110 = AXIS2_PLACEMENT_3D ( 'NONE', #147, #134, #161 ) ;
#111 = EDGE_CURVE ( 'NONE', #115, #115, #43, .T. ) ;
#112 = SECURITY_CLASSIFICATION ( '', '', #120 ) ;
#113 = AXIS2_PLACEMENT_3D ( 'NONE', #140, #137, #141 ) ;
#114 = CARTESIAN_POINT ( 'NONE',  ( -2999.500000000000000, 0.0000000000000000000, -20.00000000000000000 ) ) ;
#115 = VERTEX_POINT ( 'NONE', #114 ) ;
#116 = DIRECTION ( 'NONE',  ( 1.000000000000000000, 0.0000000000000000000, 0.0000000000000000000 ) ) ;
#117 = DATE_TIME_ROLE ( 'creation_date' ) ;
#118 = APPROVAL_ROLE ( '' ) ;
#119 = APPLICATION_CONTEXT ( 'configuration controlled 3d designs of mechanical parts and assemblies' ) ;
#120 = SECURITY_CLASSIFICATION_LEVEL ( 'unclassified' ) ;
#121 = CARTESIAN_POINT ( 'NONE',  ( -2999.500000000000000, 0.0000000000000000000, 0.0000000000000000000 ) ) ;
#122 = DIRECTION ( 'NONE',  ( 0.0000000000000000000, 0.0000000000000000000, -1.000000000000000000 ) ) ;
#123 = DIRECTION ( 'NONE',  ( 0.0000000000000000000, 0.0000000000000000000, -1.000000000000000000 ) ) ;
#124 = CARTESIAN_POINT ( 'NONE',  ( 2999.499999999999500, 0.0000000000000000000, 0.0000000000000000000 ) ) ;
#125 = APPLICATION_PROTOCOL_DEFINITION ( 'international standard', 'config_control_design', 1994, #119 ) ;
#126 = CARTESIAN_POINT ( 'NONE',  ( -3000.000000000000000, 0.0000000000000000000, 0.0000000000000000000 ) ) ;
#127 = DIRECTION ( 'NONE',  ( 0.0000000000000000000, 0.0000000000000000000, -1.000000000000000000 ) ) ;
#128 = DIRECTION ( 'NONE',  ( 1.000000000000000000, -0.0000000000000000000, -0.0000000000000000000 ) ) ;
#129 = DIRECTION ( 'NONE',  ( 1.000000000000000000, 0.0000000000000000000, 0.0000000000000000000 ) ) ;
#130 = PLANE ( 'NONE',  #102 ) ;
#131 = DIRECTION ( 'NONE',  ( -1.000000000000000000, 0.0000000000000000000, 0.0000000000000000000 ) ) ;
#132 = CARTESIAN_POINT ( 'NONE',  ( -3000.000000000000000, 0.0000000000000000000, 0.0000000000000000000 ) ) ;
#133 = DIRECTION ( 'NONE',  ( 0.0000000000000000000, 0.0000000000000000000, 1.000000000000000000 ) ) ;
#134 = DIRECTION ( 'NONE',  ( 1.000000000000000000, -0.0000000000000000000, -0.0000000000000000000 ) ) ;
#135 = DATE_TIME_ROLE ( 'classification_date' ) ;
#136 = PLANE ( 'NONE',  #113 ) ;
#137 = DIRECTION ( 'NONE',  ( 1.000000000000000000, 0.0000000000000000000, 0.0000000000000000000 ) ) ;
#138 = VERTEX_POINT ( 'NONE', #155 ) ;
#139 = PERSON_AND_ORGANIZATION_ROLE ( 'creator' ) ;
#140 = CARTESIAN_POINT ( 'NONE',  ( 3000.000000000000000, 0.0000000000000000000, 0.0000000000000000000 ) ) ;
#141 = DIRECTION ( 'NONE',  ( 0.0000000000000000000, 0.0000000000000000000, -1.000000000000000000 ) ) ;
#142 = DIRECTION ( 'NONE',  ( -1.000000000000000000, 0.0000000000000000000, 0.0000000000000000000 ) ) ;
#143 = APPROVAL_STATUS ( 'not_yet_approved' ) ;
#144 = APPLICATION_CONTEXT ( 'configuration controlled 3d designs of mechanical parts and assemblies' ) ;
#145 = PERSON_AND_ORGANIZATION_ROLE ( 'design_supplier' ) ;
#146 = APPROVAL_ROLE ( '' ) ;
#147 = CARTESIAN_POINT ( 'NONE',  ( -2999.500000000000000, 0.0000000000000000000, 0.0000000000000000000 ) ) ;
#148 = CARTESIAN_POINT ( 'NONE',  ( -3000.000000000000000, 0.0000000000000000000, 0.0000000000000000000 ) ) ;
#149 = APPROVAL_STATUS ( 'not_yet_approved' ) ;
#150 =( NAMED_UNIT ( * ) PLANE_ANGLE_UNIT ( ) SI_UNIT ( $, .RADIAN. ) );
#151 =( NAMED_UNIT ( * ) SI_UNIT ( $, .STERADIAN. ) SOLID_ANGLE_UNIT ( ) );
#152 = CARTESIAN_POINT ( 'NONE',  ( 0.0000000000000000000, 0.0000000000000000000, 0.0000000000000000000 ) ) ;
#153 = DIRECTION ( 'NONE',  ( 1.000000000000000000, 0.0000000000000000000, 0.0000000000000000000 ) ) ;
#154 = DIRECTION ( 'NONE',  ( -1.000000000000000000, -0.0000000000000000000, -0.0000000000000000000 ) ) ;
#155 = CARTESIAN_POINT ( 'NONE',  ( 2999.499999999999500, 0.0000000000000000000, -20.00000000000000000 ) ) ;
#156 = VERTEX_POINT ( 'NONE', #166 ) ;
#157 = DIRECTION ( 'NONE',  ( 0.0000000000000000000, 0.0000000000000000000, -1.000000000000000000 ) ) ;
#158 = VERTEX_POINT ( 'NONE', #167 ) ;
#159 = DIRECTION ( 'NONE',  ( 1.000000000000000000, 0.0000000000000000000, 0.0000000000000000000 ) ) ;
#160 = APPROVAL_ROLE ( '' ) ;
#161 = DIRECTION ( 'NONE',  ( 0.0000000000000000000, 0.0000000000000000000, -1.000000000000000000 ) ) ;
#162 = PERSON_AND_ORGANIZATION_ROLE ( 'classification_officer' ) ;
#163 = CARTESIAN_POINT ( 'NONE',  ( 3000.000000000000000, 0.0000000000000000000, 0.0000000000000000000 ) ) ;
#164 = DIRECTION ( 'NONE',  ( 0.0000000000000000000, 0.0000000000000000000, -1.000000000000000000 ) ) ;
#165 =( LENGTH_UNIT ( ) NAMED_UNIT ( * ) SI_UNIT ( .MILLI., .METRE. ) );
#166 = CARTESIAN_POINT ( 'NONE',  ( 3000.000000000000000, 0.0000000000000000000, -19.49999999999985100 ) ) ;
#167 = CARTESIAN_POINT ( 'NONE',  ( -3000.000000000000000, 0.0000000000000000000, -19.49999999999985100 ) ) ;
#168 = MECHANICAL_CONTEXT ( 'NONE', #144, 'mechanical' ) ;
#169 = PERSON_AND_ORGANIZATION_ROLE ( 'design_owner' ) ;
#170 = DIRECTION ( 'NONE',  ( 0.0000000000000000000, 0.0000000000000000000, -1.000000000000000000 ) ) ;
#171 = APPLICATION_PROTOCOL_DEFINITION ( 'international standard', 'config_control_design', 1994, #144 ) ;
#172 = APPROVAL_STATUS ( 'not_yet_approved' ) ;
#173 = DIRECTION ( 'NONE',  ( 0.0000000000000000000, 0.0000000000000000000, 1.000000000000000000 ) ) ;
#174 = CARTESIAN_POINT ( 'NONE',  ( 3000.000000000000000, 0.0000000000000000000, 0.0000000000000000000 ) ) ;
#175 = PERSON_AND_ORGANIZATION_ROLE ( 'creator' ) ;
ENDSEC;
END-ISO-10303-21;
