ISO-10303-21;
HEADER;
FILE_DESCRIPTION (( 'STEP AP203' ),
    '1' );
FILE_NAME ('SF30.STEP',
    '2016-03-18T07:40:23',
    ( '' ),
    ( '' ),
    'SwSTEP 2.0',
    'SolidWorks 2010',
    '' );
FILE_SCHEMA (( 'CONFIG_CONTROL_DESIGN' ));
ENDSEC;

DATA;
#1 = PERSON ( 'UNSPECIFIED', 'UNSPECIFIED', 'UNSPECIFIED', ('UNSPECIFIED'), ('UNSPECIFIED'), ('UNSPECIFIED') ) ;
#2 = PRODUCT ( 'SF30', 'SF30', '', ( #135 ) ) ;
#3 = ADVANCED_BREP_SHAPE_REPRESENTATION ( 'SF30', ( #4, #103 ), #45 ) ;
#4 = MANIFOLD_SOLID_BREP ( 'Chamfer1', #44 ) ;
#5 = UNCERTAINTY_MEASURE_WITH_UNIT (LENGTH_MEASURE( 1.000000000000000100E-005 ), #173, 'distance_accuracy_value', 'NONE');
#6 = PRODUCT_DEFINITION_SHAPE ( 'NONE', 'NONE',  #101 ) ;
#7 = DESIGN_CONTEXT ( 'detailed design', #168, 'design' ) ;
#8 = ADVANCED_FACE ( 'NONE', ( #38 ), #138, .T. ) ;
#9 = ADVANCED_FACE ( 'NONE', ( #35 ), #172, .F. ) ;
#10 = ADVANCED_FACE ( 'NONE', ( #33, #28 ), #29, .T. ) ;
#11 = PRODUCT_RELATED_PRODUCT_CATEGORY ( 'detail', '', ( #2 ) ) ;
#12 = CC_DESIGN_APPROVAL ( #95, ( #87 ) ) ;
#13 = CC_DESIGN_SECURITY_CLASSIFICATION ( #87, ( #93 ) ) ;
#14 = ADVANCED_FACE ( 'NONE', ( #32, #26 ), #30, .T. ) ;
#15 = ADVANCED_FACE ( 'NONE', ( #41, #24 ), #27, .T. ) ;
#16 = PERSON_AND_ORGANIZATION ( #1, #47 ) ;
#17 = EDGE_LOOP ( 'NONE', ( #61 ) ) ;
#18 = ORIENTED_EDGE ( 'NONE', *, *, #111, .F. ) ;
#19 = CIRCLE ( 'NONE', #110, 15.00000000000000000 ) ;
#20 = CIRCLE ( 'NONE', #113, 14.49999999999995600 ) ;
#21 = EDGE_LOOP ( 'NONE', ( #43 ) ) ;
#22 = ORIENTED_EDGE ( 'NONE', *, *, #112, .F. ) ;
#23 = EDGE_LOOP ( 'NONE', ( #42 ) ) ;
#24 = FACE_OUTER_BOUND ( 'NONE', #50, .T. ) ;
#25 = EDGE_LOOP ( 'NONE', ( #84 ) ) ;
#26 = FACE_BOUND ( 'NONE', #69, .T. ) ;
#27 = CONICAL_SURFACE ( 'NONE', #104, 15.00000000000000000, 0.7853981633982133300 ) ;
#28 = FACE_OUTER_BOUND ( 'NONE', #34, .T. ) ;
#29 = CYLINDRICAL_SURFACE ( 'NONE', #90, 15.00000000000000000 ) ;
#30 = CONICAL_SURFACE ( 'NONE', #106, 14.49999999999906700, 0.7853981633977692400 ) ;
#31 = ORIENTED_EDGE ( 'NONE', *, *, #96, .F. ) ;
#32 = FACE_OUTER_BOUND ( 'NONE', #36, .T. ) ;
#33 = FACE_OUTER_BOUND ( 'NONE', #23, .T. ) ;
#34 = EDGE_LOOP ( 'NONE', ( #62 ) ) ;
#35 = FACE_OUTER_BOUND ( 'NONE', #21, .T. ) ;
#36 = EDGE_LOOP ( 'NONE', ( #31 ) ) ;
#37 = CIRCLE ( 'NONE', #108, 14.49999999999906700 ) ;
#38 = FACE_OUTER_BOUND ( 'NONE', #25, .T. ) ;
#39 = CIRCLE ( 'NONE', #105, 15.00000000000000000 ) ;
#40 = APPROVAL_PERSON_ORGANIZATION ( #16, #100, #164 ) ;
#41 = FACE_BOUND ( 'NONE', #17, .T. ) ;
#42 = ORIENTED_EDGE ( 'NONE', *, *, #112, .T. ) ;
#43 = ORIENTED_EDGE ( 'NONE', *, *, #107, .T. ) ;
#44 = CLOSED_SHELL ( 'NONE', ( #10, #9, #8, #15, #14 ) ) ;
#45 =( GEOMETRIC_REPRESENTATION_CONTEXT ( 3 ) GLOBAL_UNCERTAINTY_ASSIGNED_CONTEXT ( ( #5 ) ) GLOBAL_UNIT_ASSIGNED_CONTEXT ( ( #173, #139, #151 ) ) REPRESENTATION_CONTEXT ( 'NONE', 'WORKASPACE' ) );
#46 = SHAPE_DEFINITION_REPRESENTATION ( #6, #3 ) ;
#47 = ORGANIZATION ( 'UNSPECIFIED', 'UNSPECIFIED', '' ) ;
#48 = CALENDAR_DATE ( 2016, 18, 3 ) ;
#49 = PERSON_AND_ORGANIZATION ( #1, #47 ) ;
#50 = EDGE_LOOP ( 'NONE', ( #22 ) ) ;
#51 = DATE_AND_TIME ( #48, #54 ) ;
#52 = APPROVAL_DATE_TIME ( #51, #95 ) ;
#53 = COORDINATED_UNIVERSAL_TIME_OFFSET ( 2, 0, .AHEAD. ) ;
#54 = LOCAL_TIME ( 9, 40, 23.00000000000000000, #55 ) ;
#55 = COORDINATED_UNIVERSAL_TIME_OFFSET ( 2, 0, .AHEAD. ) ;
#56 = LOCAL_TIME ( 9, 40, 23.00000000000000000, #53 ) ;
#57 = CALENDAR_DATE ( 2016, 18, 3 ) ;
#58 = DATE_AND_TIME ( #57, #56 ) ;
#59 = APPROVAL_PERSON_ORGANIZATION ( #64, #95, #115 ) ;
#60 = APPROVAL_DATE_TIME ( #58, #100 ) ;
#61 = ORIENTED_EDGE ( 'NONE', *, *, #107, .F. ) ;
#62 = ORIENTED_EDGE ( 'NONE', *, *, #96, .T. ) ;
#63 = DATE_AND_TIME ( #83, #82 ) ;
#64 = PERSON_AND_ORGANIZATION ( #1, #47 ) ;
#65 = COORDINATED_UNIVERSAL_TIME_OFFSET ( 2, 0, .AHEAD. ) ;
#66 = PERSON_AND_ORGANIZATION ( #1, #47 ) ;
#67 = CALENDAR_DATE ( 2016, 18, 3 ) ;
#68 = LOCAL_TIME ( 9, 40, 23.00000000000000000, #65 ) ;
#69 = EDGE_LOOP ( 'NONE', ( #18 ) ) ;
#70 = DATE_AND_TIME ( #67, #68 ) ;
#71 = PERSON_AND_ORGANIZATION ( #1, #47 ) ;
#72 = APPROVAL_PERSON_ORGANIZATION ( #71, #92, #149 ) ;
#73 = COORDINATED_UNIVERSAL_TIME_OFFSET ( 2, 0, .AHEAD. ) ;
#74 = LOCAL_TIME ( 9, 40, 23.00000000000000000, #73 ) ;
#75 = CALENDAR_DATE ( 2016, 18, 3 ) ;
#76 = DATE_AND_TIME ( #75, #74 ) ;
#77 = APPROVAL_DATE_TIME ( #76, #92 ) ;
#78 = PERSON_AND_ORGANIZATION ( #1, #47 ) ;
#79 = PERSON_AND_ORGANIZATION ( #1, #47 ) ;
#80 = PERSON_AND_ORGANIZATION ( #1, #47 ) ;
#81 = COORDINATED_UNIVERSAL_TIME_OFFSET ( 2, 0, .AHEAD. ) ;
#82 = LOCAL_TIME ( 9, 40, 23.00000000000000000, #81 ) ;
#83 = CALENDAR_DATE ( 2016, 18, 3 ) ;
#84 = ORIENTED_EDGE ( 'NONE', *, *, #111, .T. ) ;
#85 = CC_DESIGN_DATE_AND_TIME_ASSIGNMENT ( #63, #152, ( #87 ) ) ;
#86 = CC_DESIGN_PERSON_AND_ORGANIZATION_ASSIGNMENT ( #80, #117, ( #87 ) ) ;
#87 = SECURITY_CLASSIFICATION ( '', '', #155 ) ;
#88 = CC_DESIGN_PERSON_AND_ORGANIZATION_ASSIGNMENT ( #79, #143, ( #93 ) ) ;
#89 = CC_DESIGN_PERSON_AND_ORGANIZATION_ASSIGNMENT ( #78, #175, ( #93 ) ) ;
#90 = AXIS2_PLACEMENT_3D ( 'NONE', #136, #128, #144 ) ;
#91 = CC_DESIGN_APPROVAL ( #92, ( #93 ) ) ;
#92 = APPROVAL ( #147, 'UNSPECIFIED' ) ;
#93 = PRODUCT_DEFINITION_FORMATION_WITH_SPECIFIED_SOURCE ( 'ANY', '', #2, .NOT_KNOWN. ) ;
#94 = CC_DESIGN_DATE_AND_TIME_ASSIGNMENT ( #70, #148, ( #101 ) ) ;
#95 = APPROVAL ( #120, 'UNSPECIFIED' ) ;
#96 = EDGE_CURVE ( 'NONE', #170, #170, #19, .T. ) ;
#97 = AXIS2_PLACEMENT_3D ( 'NONE', #146, #114, #134 ) ;
#98 = CC_DESIGN_PERSON_AND_ORGANIZATION_ASSIGNMENT ( #66, #122, ( #101 ) ) ;
#99 = CC_DESIGN_APPROVAL ( #100, ( #101 ) ) ;
#100 = APPROVAL ( #162, 'UNSPECIFIED' ) ;
#101 = PRODUCT_DEFINITION ( 'UNKNOWN', '', #93, #7 ) ;
#102 = CC_DESIGN_PERSON_AND_ORGANIZATION_ASSIGNMENT ( #49, #169, ( #2 ) ) ;
#103 = AXIS2_PLACEMENT_3D ( 'NONE', #154, #131, #156 ) ;
#104 = AXIS2_PLACEMENT_3D ( 'NONE', #132, #159, #133 ) ;
#105 = AXIS2_PLACEMENT_3D ( 'NONE', #123, #140, #161 ) ;
#106 = AXIS2_PLACEMENT_3D ( 'NONE', #145, #118, #150 ) ;
#107 = EDGE_CURVE ( 'NONE', #160, #160, #20, .T. ) ;
#108 = AXIS2_PLACEMENT_3D ( 'NONE', #125, #163, #174 ) ;
#109 = AXIS2_PLACEMENT_3D ( 'NONE', #157, #137, #141 ) ;
#110 = AXIS2_PLACEMENT_3D ( 'NONE', #129, #130, #124 ) ;
#111 = EDGE_CURVE ( 'NONE', #167, #167, #37, .T. ) ;
#112 = EDGE_CURVE ( 'NONE', #127, #127, #39, .T. ) ;
#113 = AXIS2_PLACEMENT_3D ( 'NONE', #126, #119, #153 ) ;
#114 = DIRECTION ( 'NONE',  ( 1.000000000000000000, 0.0000000000000000000, 0.0000000000000000000 ) ) ;
#115 = APPROVAL_ROLE ( '' ) ;
#116 = CARTESIAN_POINT ( 'NONE',  ( 3000.000000000000000, 0.0000000000000000000, -14.49999999999906700 ) ) ;
#117 = PERSON_AND_ORGANIZATION_ROLE ( 'classification_officer' ) ;
#118 = DIRECTION ( 'NONE',  ( -1.000000000000000000, 0.0000000000000000000, 0.0000000000000000000 ) ) ;
#119 = DIRECTION ( 'NONE',  ( -1.000000000000000000, -0.0000000000000000000, -0.0000000000000000000 ) ) ;
#120 = APPROVAL_STATUS ( 'not_yet_approved' ) ;
#121 = APPLICATION_CONTEXT ( 'configuration controlled 3d designs of mechanical parts and assemblies' ) ;
#122 = PERSON_AND_ORGANIZATION_ROLE ( 'creator' ) ;
#123 = CARTESIAN_POINT ( 'NONE',  ( -2999.500000000000900, 0.0000000000000000000, 0.0000000000000000000 ) ) ;
#124 = DIRECTION ( 'NONE',  ( 0.0000000000000000000, 0.0000000000000000000, -1.000000000000000000 ) ) ;
#125 = CARTESIAN_POINT ( 'NONE',  ( 3000.000000000000000, 0.0000000000000000000, 0.0000000000000000000 ) ) ;
#126 = CARTESIAN_POINT ( 'NONE',  ( -3000.000000000000000, 0.0000000000000000000, 0.0000000000000000000 ) ) ;
#127 = VERTEX_POINT ( 'NONE', #142 ) ;
#128 = DIRECTION ( 'NONE',  ( 1.000000000000000000, 0.0000000000000000000, 0.0000000000000000000 ) ) ;
#129 = CARTESIAN_POINT ( 'NONE',  ( 2999.499999999999500, 0.0000000000000000000, 0.0000000000000000000 ) ) ;
#130 = DIRECTION ( 'NONE',  ( -1.000000000000000000, 0.0000000000000000000, 0.0000000000000000000 ) ) ;
#131 = DIRECTION ( 'NONE',  ( 0.0000000000000000000, 0.0000000000000000000, 1.000000000000000000 ) ) ;
#132 = CARTESIAN_POINT ( 'NONE',  ( -2999.500000000000900, 0.0000000000000000000, 0.0000000000000000000 ) ) ;
#133 = DIRECTION ( 'NONE',  ( 0.0000000000000000000, 0.0000000000000000000, -1.000000000000000000 ) ) ;
#134 = DIRECTION ( 'NONE',  ( 0.0000000000000000000, 0.0000000000000000000, -1.000000000000000000 ) ) ;
#135 = MECHANICAL_CONTEXT ( 'NONE', #121, 'mechanical' ) ;
#136 = CARTESIAN_POINT ( 'NONE',  ( -3000.000000000000000, 0.0000000000000000000, 0.0000000000000000000 ) ) ;
#137 = DIRECTION ( 'NONE',  ( 1.000000000000000000, 0.0000000000000000000, 0.0000000000000000000 ) ) ;
#138 = PLANE ( 'NONE',  #109 ) ;
#139 =( NAMED_UNIT ( * ) PLANE_ANGLE_UNIT ( ) SI_UNIT ( $, .RADIAN. ) );
#140 = DIRECTION ( 'NONE',  ( 1.000000000000000000, -0.0000000000000000000, -0.0000000000000000000 ) ) ;
#141 = DIRECTION ( 'NONE',  ( 0.0000000000000000000, 0.0000000000000000000, -1.000000000000000000 ) ) ;
#142 = CARTESIAN_POINT ( 'NONE',  ( -2999.500000000000900, 0.0000000000000000000, -15.00000000000000000 ) ) ;
#143 = PERSON_AND_ORGANIZATION_ROLE ( 'design_supplier' ) ;
#144 = DIRECTION ( 'NONE',  ( 0.0000000000000000000, 0.0000000000000000000, -1.000000000000000000 ) ) ;
#145 = CARTESIAN_POINT ( 'NONE',  ( 3000.000000000000000, 0.0000000000000000000, 0.0000000000000000000 ) ) ;
#146 = CARTESIAN_POINT ( 'NONE',  ( -3000.000000000000000, 0.0000000000000000000, 0.0000000000000000000 ) ) ;
#147 = APPROVAL_STATUS ( 'not_yet_approved' ) ;
#148 = DATE_TIME_ROLE ( 'creation_date' ) ;
#149 = APPROVAL_ROLE ( '' ) ;
#150 = DIRECTION ( 'NONE',  ( 0.0000000000000000000, 0.0000000000000000000, 1.000000000000000000 ) ) ;
#151 =( NAMED_UNIT ( * ) SI_UNIT ( $, .STERADIAN. ) SOLID_ANGLE_UNIT ( ) );
#152 = DATE_TIME_ROLE ( 'classification_date' ) ;
#153 = DIRECTION ( 'NONE',  ( 0.0000000000000000000, 0.0000000000000000000, -1.000000000000000000 ) ) ;
#154 = CARTESIAN_POINT ( 'NONE',  ( 0.0000000000000000000, 0.0000000000000000000, 0.0000000000000000000 ) ) ;
#155 = SECURITY_CLASSIFICATION_LEVEL ( 'unclassified' ) ;
#156 = DIRECTION ( 'NONE',  ( 1.000000000000000000, 0.0000000000000000000, 0.0000000000000000000 ) ) ;
#157 = CARTESIAN_POINT ( 'NONE',  ( 3000.000000000000000, 0.0000000000000000000, 0.0000000000000000000 ) ) ;
#158 = APPLICATION_PROTOCOL_DEFINITION ( 'international standard', 'config_control_design', 1994, #121 ) ;
#159 = DIRECTION ( 'NONE',  ( 1.000000000000000000, -0.0000000000000000000, -0.0000000000000000000 ) ) ;
#160 = VERTEX_POINT ( 'NONE', #166 ) ;
#161 = DIRECTION ( 'NONE',  ( 0.0000000000000000000, 0.0000000000000000000, -1.000000000000000000 ) ) ;
#162 = APPROVAL_STATUS ( 'not_yet_approved' ) ;
#163 = DIRECTION ( 'NONE',  ( 1.000000000000000000, 0.0000000000000000000, 0.0000000000000000000 ) ) ;
#164 = APPROVAL_ROLE ( '' ) ;
#165 = CARTESIAN_POINT ( 'NONE',  ( 2999.499999999999500, 0.0000000000000000000, -15.00000000000000000 ) ) ;
#166 = CARTESIAN_POINT ( 'NONE',  ( -3000.000000000000000, 0.0000000000000000000, -14.49999999999995600 ) ) ;
#167 = VERTEX_POINT ( 'NONE', #116 ) ;
#168 = APPLICATION_CONTEXT ( 'configuration controlled 3d designs of mechanical parts and assemblies' ) ;
#169 = PERSON_AND_ORGANIZATION_ROLE ( 'design_owner' ) ;
#170 = VERTEX_POINT ( 'NONE', #165 ) ;
#171 = APPLICATION_PROTOCOL_DEFINITION ( 'international standard', 'config_control_design', 1994, #168 ) ;
#172 = PLANE ( 'NONE',  #97 ) ;
#173 =( LENGTH_UNIT ( ) NAMED_UNIT ( * ) SI_UNIT ( .MILLI., .METRE. ) );
#174 = DIRECTION ( 'NONE',  ( 0.0000000000000000000, 0.0000000000000000000, -1.000000000000000000 ) ) ;
#175 = PERSON_AND_ORGANIZATION_ROLE ( 'creator' ) ;
ENDSEC;
END-ISO-10303-21;
