ISO-10303-21;
HEADER;
FILE_DESCRIPTION (( 'STEP AP203' ),
    '1' );
FILE_NAME ('SF28.STEP',
    '2016-03-18T07:39:57',
    ( '' ),
    ( '' ),
    'SwSTEP 2.0',
    'SolidWorks 2010',
    '' );
FILE_SCHEMA (( 'CONFIG_CONTROL_DESIGN' ));
ENDSEC;

DATA;
#1 = PRODUCT ( 'SF28', 'SF28', '', ( #175 ) ) ;
#2 = PERSON ( 'UNSPECIFIED', 'UNSPECIFIED', 'UNSPECIFIED', ('UNSPECIFIED'), ('UNSPECIFIED'), ('UNSPECIFIED') ) ;
#3 = UNCERTAINTY_MEASURE_WITH_UNIT (LENGTH_MEASURE( 1.000000000000000100E-005 ), #169, 'distance_accuracy_value', 'NONE');
#4 = MANIFOLD_SOLID_BREP ( 'Chamfer1', #58 ) ;
#5 = ADVANCED_BREP_SHAPE_REPRESENTATION ( 'SF28', ( #4, #17 ), #61 ) ;
#6 = DESIGN_CONTEXT ( 'detailed design', #115, 'design' ) ;
#7 = PRODUCT_DEFINITION_SHAPE ( 'NONE', 'NONE',  #13 ) ;
#8 = ADVANCED_FACE ( 'NONE', ( #57, #47 ), #51, .T. ) ;
#9 = ADVANCED_FACE ( 'NONE', ( #48, #37 ), #42, .T. ) ;
#10 = ADVANCED_FACE ( 'NONE', ( #35, #39 ), #44, .T. ) ;
#11 = AXIS2_PLACEMENT_3D ( 'NONE', #146, #148, #119 ) ;
#12 = APPROVAL ( #117, 'UNSPECIFIED' ) ;
#13 = PRODUCT_DEFINITION ( 'UNKNOWN', '', #99, #6 ) ;
#14 = CC_DESIGN_PERSON_AND_ORGANIZATION_ASSIGNMENT ( #66, #166, ( #1 ) ) ;
#15 = AXIS2_PLACEMENT_3D ( 'NONE', #141, #153, #145 ) ;
#16 = AXIS2_PLACEMENT_3D ( 'NONE', #133, #136, #142 ) ;
#17 = AXIS2_PLACEMENT_3D ( 'NONE', #155, #120, #171 ) ;
#18 = EDGE_CURVE ( 'NONE', #129, #129, #32, .T. ) ;
#19 = AXIS2_PLACEMENT_3D ( 'NONE', #139, #128, #126 ) ;
#20 = CC_DESIGN_APPROVAL ( #12, ( #13 ) ) ;
#21 = AXIS2_PLACEMENT_3D ( 'NONE', #125, #157, #172 ) ;
#22 = EDGE_CURVE ( 'NONE', #143, #143, #34, .T. ) ;
#23 = AXIS2_PLACEMENT_3D ( 'NONE', #151, #134, #131 ) ;
#24 = EDGE_CURVE ( 'NONE', #159, #159, #64, .T. ) ;
#25 = AXIS2_PLACEMENT_3D ( 'NONE', #163, #140, #149 ) ;
#26 = EDGE_CURVE ( 'NONE', #127, #127, #55, .T. ) ;
#27 = AXIS2_PLACEMENT_3D ( 'NONE', #150, #123, #122 ) ;
#28 = AXIS2_PLACEMENT_3D ( 'NONE', #116, #152, #147 ) ;
#29 = ADVANCED_FACE ( 'NONE', ( #43 ), #124, .T. ) ;
#30 = PERSON_AND_ORGANIZATION ( #2, #63 ) ;
#31 = CALENDAR_DATE ( 2016, 18, 3 ) ;
#32 = CIRCLE ( 'NONE', #15, 13.50000000000140000 ) ;
#33 = DATE_AND_TIME ( #41, #56 ) ;
#34 = CIRCLE ( 'NONE', #23, 13.49999999999962300 ) ;
#35 = FACE_OUTER_BOUND ( 'NONE', #72, .T. ) ;
#36 = EDGE_LOOP ( 'NONE', ( #88 ) ) ;
#37 = FACE_BOUND ( 'NONE', #52, .T. ) ;
#38 = LOCAL_TIME ( 9, 39, 57.00000000000000000, #65 ) ;
#39 = FACE_OUTER_BOUND ( 'NONE', #53, .T. ) ;
#40 = ORIENTED_EDGE ( 'NONE', *, *, #22, .F. ) ;
#41 = CALENDAR_DATE ( 2016, 18, 3 ) ;
#42 = CONICAL_SURFACE ( 'NONE', #25, 13.50000000000140000, 0.7853981633963259500 ) ;
#43 = FACE_OUTER_BOUND ( 'NONE', #78, .T. ) ;
#44 = CYLINDRICAL_SURFACE ( 'NONE', #11, 14.00000000000000000 ) ;
#45 = ORIENTED_EDGE ( 'NONE', *, *, #24, .T. ) ;
#46 = APPROVAL_PERSON_ORGANIZATION ( #76, #108, #118 ) ;
#47 = FACE_OUTER_BOUND ( 'NONE', #50, .T. ) ;
#48 = FACE_OUTER_BOUND ( 'NONE', #36, .T. ) ;
#49 = PERSON_AND_ORGANIZATION ( #2, #63 ) ;
#50 = EDGE_LOOP ( 'NONE', ( #89 ) ) ;
#51 = CONICAL_SURFACE ( 'NONE', #28, 14.00000000000000000, 0.7853981633972140200 ) ;
#52 = EDGE_LOOP ( 'NONE', ( #67 ) ) ;
#53 = EDGE_LOOP ( 'NONE', ( #45 ) ) ;
#54 = APPROVAL_DATE_TIME ( #75, #112 ) ;
#55 = CIRCLE ( 'NONE', #27, 14.00000000000000000 ) ;
#56 = LOCAL_TIME ( 9, 39, 57.00000000000000000, #77 ) ;
#57 = FACE_BOUND ( 'NONE', #69, .T. ) ;
#58 = CLOSED_SHELL ( 'NONE', ( #10, #113, #29, #8, #9 ) ) ;
#59 = FACE_OUTER_BOUND ( 'NONE', #87, .T. ) ;
#60 = ORIENTED_EDGE ( 'NONE', *, *, #26, .T. ) ;
#61 =( GEOMETRIC_REPRESENTATION_CONTEXT ( 3 ) GLOBAL_UNCERTAINTY_ASSIGNED_CONTEXT ( ( #3 ) ) GLOBAL_UNIT_ASSIGNED_CONTEXT ( ( #169, #167, #170 ) ) REPRESENTATION_CONTEXT ( 'NONE', 'WORKASPACE' ) );
#62 = SHAPE_DEFINITION_REPRESENTATION ( #7, #5 ) ;
#63 = ORGANIZATION ( 'UNSPECIFIED', 'UNSPECIFIED', '' ) ;
#64 = CIRCLE ( 'NONE', #19, 14.00000000000000000 ) ;
#65 = COORDINATED_UNIVERSAL_TIME_OFFSET ( 2, 0, .AHEAD. ) ;
#66 = PERSON_AND_ORGANIZATION ( #2, #63 ) ;
#67 = ORIENTED_EDGE ( 'NONE', *, *, #18, .F. ) ;
#68 = ORIENTED_EDGE ( 'NONE', *, *, #18, .T. ) ;
#69 = EDGE_LOOP ( 'NONE', ( #40 ) ) ;
#70 = DATE_AND_TIME ( #31, #38 ) ;
#71 = PERSON_AND_ORGANIZATION ( #2, #63 ) ;
#72 = EDGE_LOOP ( 'NONE', ( #60 ) ) ;
#73 = PERSON_AND_ORGANIZATION ( #2, #63 ) ;
#74 = APPROVAL_DATE_TIME ( #70, #108 ) ;
#75 = DATE_AND_TIME ( #80, #83 ) ;
#76 = PERSON_AND_ORGANIZATION ( #2, #63 ) ;
#77 = COORDINATED_UNIVERSAL_TIME_OFFSET ( 2, 0, .AHEAD. ) ;
#78 = EDGE_LOOP ( 'NONE', ( #68 ) ) ;
#79 = APPROVAL_PERSON_ORGANIZATION ( #30, #12, #174 ) ;
#80 = CALENDAR_DATE ( 2016, 18, 3 ) ;
#81 = APPROVAL_PERSON_ORGANIZATION ( #86, #112, #114 ) ;
#82 = COORDINATED_UNIVERSAL_TIME_OFFSET ( 2, 0, .AHEAD. ) ;
#83 = LOCAL_TIME ( 9, 39, 57.00000000000000000, #82 ) ;
#84 = LOCAL_TIME ( 9, 39, 57.00000000000000000, #96 ) ;
#85 = DATE_AND_TIME ( #97, #84 ) ;
#86 = PERSON_AND_ORGANIZATION ( #2, #63 ) ;
#87 = EDGE_LOOP ( 'NONE', ( #98 ) ) ;
#88 = ORIENTED_EDGE ( 'NONE', *, *, #24, .F. ) ;
#89 = ORIENTED_EDGE ( 'NONE', *, *, #26, .F. ) ;
#90 = COORDINATED_UNIVERSAL_TIME_OFFSET ( 2, 0, .AHEAD. ) ;
#91 = LOCAL_TIME ( 9, 39, 57.00000000000000000, #90 ) ;
#92 = CALENDAR_DATE ( 2016, 18, 3 ) ;
#93 = DATE_AND_TIME ( #92, #91 ) ;
#94 = APPROVAL_DATE_TIME ( #93, #12 ) ;
#95 = PERSON_AND_ORGANIZATION ( #2, #63 ) ;
#96 = COORDINATED_UNIVERSAL_TIME_OFFSET ( 2, 0, .AHEAD. ) ;
#97 = CALENDAR_DATE ( 2016, 18, 3 ) ;
#98 = ORIENTED_EDGE ( 'NONE', *, *, #22, .T. ) ;
#99 = PRODUCT_DEFINITION_FORMATION_WITH_SPECIFIED_SOURCE ( 'ANY', '', #1, .NOT_KNOWN. ) ;
#100 = CC_DESIGN_PERSON_AND_ORGANIZATION_ASSIGNMENT ( #49, #138, ( #102 ) ) ;
#101 = PRODUCT_RELATED_PRODUCT_CATEGORY ( 'detail', '', ( #1 ) ) ;
#102 = SECURITY_CLASSIFICATION ( '', '', #137 ) ;
#103 = CC_DESIGN_PERSON_AND_ORGANIZATION_ASSIGNMENT ( #73, #162, ( #99 ) ) ;
#104 = CC_DESIGN_PERSON_AND_ORGANIZATION_ASSIGNMENT ( #71, #154, ( #99 ) ) ;
#105 = CC_DESIGN_SECURITY_CLASSIFICATION ( #102, ( #99 ) ) ;
#106 = CC_DESIGN_PERSON_AND_ORGANIZATION_ASSIGNMENT ( #95, #132, ( #13 ) ) ;
#107 = CC_DESIGN_APPROVAL ( #112, ( #99 ) ) ;
#108 = APPROVAL ( #144, 'UNSPECIFIED' ) ;
#109 = CC_DESIGN_DATE_AND_TIME_ASSIGNMENT ( #33, #130, ( #102 ) ) ;
#110 = CC_DESIGN_APPROVAL ( #108, ( #102 ) ) ;
#111 = CC_DESIGN_DATE_AND_TIME_ASSIGNMENT ( #85, #173, ( #13 ) ) ;
#112 = APPROVAL ( #135, 'UNSPECIFIED' ) ;
#113 = ADVANCED_FACE ( 'NONE', ( #59 ), #161, .F. ) ;
#114 = APPROVAL_ROLE ( '' ) ;
#115 = APPLICATION_CONTEXT ( 'configuration controlled 3d designs of mechanical parts and assemblies' ) ;
#116 = CARTESIAN_POINT ( 'NONE',  ( -2999.499999999999500, 0.0000000000000000000, 0.0000000000000000000 ) ) ;
#117 = APPROVAL_STATUS ( 'not_yet_approved' ) ;
#118 = APPROVAL_ROLE ( '' ) ;
#119 = DIRECTION ( 'NONE',  ( 0.0000000000000000000, 0.0000000000000000000, -1.000000000000000000 ) ) ;
#120 = DIRECTION ( 'NONE',  ( 0.0000000000000000000, 0.0000000000000000000, 1.000000000000000000 ) ) ;
#121 = CARTESIAN_POINT ( 'NONE',  ( 3000.000000000000000, 0.0000000000000000000, -13.50000000000140000 ) ) ;
#122 = DIRECTION ( 'NONE',  ( 0.0000000000000000000, 0.0000000000000000000, -1.000000000000000000 ) ) ;
#123 = DIRECTION ( 'NONE',  ( 1.000000000000000000, -0.0000000000000000000, -0.0000000000000000000 ) ) ;
#124 = PLANE ( 'NONE',  #21 ) ;
#125 = CARTESIAN_POINT ( 'NONE',  ( 3000.000000000000000, 0.0000000000000000000, 0.0000000000000000000 ) ) ;
#126 = DIRECTION ( 'NONE',  ( 0.0000000000000000000, 0.0000000000000000000, -1.000000000000000000 ) ) ;
#127 = VERTEX_POINT ( 'NONE', #165 ) ;
#128 = DIRECTION ( 'NONE',  ( -1.000000000000000000, 0.0000000000000000000, 0.0000000000000000000 ) ) ;
#129 = VERTEX_POINT ( 'NONE', #121 ) ;
#130 = DATE_TIME_ROLE ( 'classification_date' ) ;
#131 = DIRECTION ( 'NONE',  ( 0.0000000000000000000, 0.0000000000000000000, -1.000000000000000000 ) ) ;
#132 = PERSON_AND_ORGANIZATION_ROLE ( 'creator' ) ;
#133 = CARTESIAN_POINT ( 'NONE',  ( -3000.000000000000000, 0.0000000000000000000, 0.0000000000000000000 ) ) ;
#134 = DIRECTION ( 'NONE',  ( -1.000000000000000000, -0.0000000000000000000, -0.0000000000000000000 ) ) ;
#135 = APPROVAL_STATUS ( 'not_yet_approved' ) ;
#136 = DIRECTION ( 'NONE',  ( 1.000000000000000000, 0.0000000000000000000, 0.0000000000000000000 ) ) ;
#137 = SECURITY_CLASSIFICATION_LEVEL ( 'unclassified' ) ;
#138 = PERSON_AND_ORGANIZATION_ROLE ( 'classification_officer' ) ;
#139 = CARTESIAN_POINT ( 'NONE',  ( 2999.500000000000500, 0.0000000000000000000, 0.0000000000000000000 ) ) ;
#140 = DIRECTION ( 'NONE',  ( -1.000000000000000000, 0.0000000000000000000, 0.0000000000000000000 ) ) ;
#141 = CARTESIAN_POINT ( 'NONE',  ( 3000.000000000000000, 0.0000000000000000000, 0.0000000000000000000 ) ) ;
#142 = DIRECTION ( 'NONE',  ( 0.0000000000000000000, 0.0000000000000000000, -1.000000000000000000 ) ) ;
#143 = VERTEX_POINT ( 'NONE', #158 ) ;
#144 = APPROVAL_STATUS ( 'not_yet_approved' ) ;
#145 = DIRECTION ( 'NONE',  ( 0.0000000000000000000, 0.0000000000000000000, -1.000000000000000000 ) ) ;
#146 = CARTESIAN_POINT ( 'NONE',  ( -3000.000000000000000, 0.0000000000000000000, 0.0000000000000000000 ) ) ;
#147 = DIRECTION ( 'NONE',  ( 0.0000000000000000000, 0.0000000000000000000, -1.000000000000000000 ) ) ;
#148 = DIRECTION ( 'NONE',  ( 1.000000000000000000, 0.0000000000000000000, 0.0000000000000000000 ) ) ;
#149 = DIRECTION ( 'NONE',  ( 0.0000000000000000000, 0.0000000000000000000, 1.000000000000000000 ) ) ;
#150 = CARTESIAN_POINT ( 'NONE',  ( -2999.499999999999500, 0.0000000000000000000, 0.0000000000000000000 ) ) ;
#151 = CARTESIAN_POINT ( 'NONE',  ( -3000.000000000000000, 0.0000000000000000000, 0.0000000000000000000 ) ) ;
#152 = DIRECTION ( 'NONE',  ( 1.000000000000000000, -0.0000000000000000000, -0.0000000000000000000 ) ) ;
#153 = DIRECTION ( 'NONE',  ( 1.000000000000000000, 0.0000000000000000000, 0.0000000000000000000 ) ) ;
#154 = PERSON_AND_ORGANIZATION_ROLE ( 'creator' ) ;
#155 = CARTESIAN_POINT ( 'NONE',  ( 0.0000000000000000000, 0.0000000000000000000, 0.0000000000000000000 ) ) ;
#156 = APPLICATION_CONTEXT ( 'configuration controlled 3d designs of mechanical parts and assemblies' ) ;
#157 = DIRECTION ( 'NONE',  ( 1.000000000000000000, 0.0000000000000000000, 0.0000000000000000000 ) ) ;
#158 = CARTESIAN_POINT ( 'NONE',  ( -3000.000000000000000, 0.0000000000000000000, -13.49999999999962300 ) ) ;
#159 = VERTEX_POINT ( 'NONE', #160 ) ;
#160 = CARTESIAN_POINT ( 'NONE',  ( 2999.500000000000500, 0.0000000000000000000, -14.00000000000000000 ) ) ;
#161 = PLANE ( 'NONE',  #16 ) ;
#162 = PERSON_AND_ORGANIZATION_ROLE ( 'design_supplier' ) ;
#163 = CARTESIAN_POINT ( 'NONE',  ( 3000.000000000000000, 0.0000000000000000000, 0.0000000000000000000 ) ) ;
#164 = APPLICATION_PROTOCOL_DEFINITION ( 'international standard', 'config_control_design', 1994, #115 ) ;
#165 = CARTESIAN_POINT ( 'NONE',  ( -2999.499999999999500, 0.0000000000000000000, -14.00000000000000000 ) ) ;
#166 = PERSON_AND_ORGANIZATION_ROLE ( 'design_owner' ) ;
#167 =( NAMED_UNIT ( * ) PLANE_ANGLE_UNIT ( ) SI_UNIT ( $, .RADIAN. ) );
#168 = APPLICATION_PROTOCOL_DEFINITION ( 'international standard', 'config_control_design', 1994, #156 ) ;
#169 =( LENGTH_UNIT ( ) NAMED_UNIT ( * ) SI_UNIT ( .MILLI., .METRE. ) );
#170 =( NAMED_UNIT ( * ) SI_UNIT ( $, .STERADIAN. ) SOLID_ANGLE_UNIT ( ) );
#171 = DIRECTION ( 'NONE',  ( 1.000000000000000000, 0.0000000000000000000, 0.0000000000000000000 ) ) ;
#172 = DIRECTION ( 'NONE',  ( 0.0000000000000000000, 0.0000000000000000000, -1.000000000000000000 ) ) ;
#173 = DATE_TIME_ROLE ( 'creation_date' ) ;
#174 = APPROVAL_ROLE ( '' ) ;
#175 = MECHANICAL_CONTEXT ( 'NONE', #156, 'mechanical' ) ;
ENDSEC;
END-ISO-10303-21;
