ISO-10303-21;
HEADER;
FILE_DESCRIPTION (( 'STEP AP203' ),
    '1' );
FILE_NAME ('SF20.STEP',
    '2016-03-18T07:38:25',
    ( '' ),
    ( '' ),
    'SwSTEP 2.0',
    'SolidWorks 2010',
    '' );
FILE_SCHEMA (( 'CONFIG_CONTROL_DESIGN' ));
ENDSEC;

DATA;
#1 = PERSON ( 'UNSPECIFIED', 'UNSPECIFIED', 'UNSPECIFIED', ('UNSPECIFIED'), ('UNSPECIFIED'), ('UNSPECIFIED') ) ;
#2 = PRODUCT ( 'SF20', 'SF20', '', ( #149 ) ) ;
#3 = MANIFOLD_SOLID_BREP ( 'Chamfer1', #17 ) ;
#4 = ADVANCED_BREP_SHAPE_REPRESENTATION ( 'SF20', ( #3, #91 ), #49 ) ;
#5 = UNCERTAINTY_MEASURE_WITH_UNIT (LENGTH_MEASURE( 1.000000000000000100E-005 ), #148, 'distance_accuracy_value', 'NONE');
#6 = PRODUCT_DEFINITION_SHAPE ( 'NONE', 'NONE',  #88 ) ;
#7 = DESIGN_CONTEXT ( 'detailed design', #154, 'design' ) ;
#8 = ADVANCED_FACE ( 'NONE', ( #35 ), #135, .T. ) ;
#9 = ADVANCED_FACE ( 'NONE', ( #36 ), #175, .F. ) ;
#10 = ADVANCED_FACE ( 'NONE', ( #38, #32 ), #18, .T. ) ;
#11 = ADVANCED_FACE ( 'NONE', ( #33, #27 ), #24, .T. ) ;
#12 = ADVANCED_FACE ( 'NONE', ( #48, #23 ), #21, .T. ) ;
#13 = EDGE_LOOP ( 'NONE', ( #29 ) ) ;
#14 = CIRCLE ( 'NONE', #96, 9.500000000000952100 ) ;
#15 = ORIENTED_EDGE ( 'NONE', *, *, #108, .F. ) ;
#16 = EDGE_LOOP ( 'NONE', ( #15 ) ) ;
#17 = CLOSED_SHELL ( 'NONE', ( #10, #9, #8, #12, #11 ) ) ;
#18 = CYLINDRICAL_SURFACE ( 'NONE', #98, 10.00000000000000000 ) ;
#19 = EDGE_LOOP ( 'NONE', ( #39 ) ) ;
#20 = APPROVAL_PERSON_ORGANIZATION ( #54, #87, #137 ) ;
#21 = CONICAL_SURFACE ( 'NONE', #94, 10.00000000000000000, 0.7853981633972175700 ) ;
#22 = EDGE_LOOP ( 'NONE', ( #31 ) ) ;
#23 = FACE_OUTER_BOUND ( 'NONE', #44, .T. ) ;
#24 = CONICAL_SURFACE ( 'NONE', #95, 9.499999999999175800, 0.7853981633976616600 ) ;
#25 = CIRCLE ( 'NONE', #103, 10.00000000000000000 ) ;
#26 = CALENDAR_DATE ( 2016, 18, 3 ) ;
#27 = FACE_BOUND ( 'NONE', #16, .T. ) ;
#28 = ORIENTED_EDGE ( 'NONE', *, *, #106, .F. ) ;
#29 = ORIENTED_EDGE ( 'NONE', *, *, #108, .T. ) ;
#30 = ORIENTED_EDGE ( 'NONE', *, *, #106, .T. ) ;
#31 = ORIENTED_EDGE ( 'NONE', *, *, #105, .F. ) ;
#32 = FACE_OUTER_BOUND ( 'NONE', #47, .T. ) ;
#33 = FACE_OUTER_BOUND ( 'NONE', #22, .T. ) ;
#34 = EDGE_LOOP ( 'NONE', ( #45 ) ) ;
#35 = FACE_OUTER_BOUND ( 'NONE', #13, .T. ) ;
#36 = FACE_OUTER_BOUND ( 'NONE', #19, .T. ) ;
#37 = PERSON_AND_ORGANIZATION ( #1, #52 ) ;
#38 = FACE_OUTER_BOUND ( 'NONE', #61, .T. ) ;
#39 = ORIENTED_EDGE ( 'NONE', *, *, #107, .T. ) ;
#40 = DATE_AND_TIME ( #26, #43 ) ;
#41 = CIRCLE ( 'NONE', #92, 9.499999999999175800 ) ;
#42 = COORDINATED_UNIVERSAL_TIME_OFFSET ( 2, 0, .AHEAD. ) ;
#43 = LOCAL_TIME ( 9, 38, 25.00000000000000000, #42 ) ;
#44 = EDGE_LOOP ( 'NONE', ( #28 ) ) ;
#45 = ORIENTED_EDGE ( 'NONE', *, *, #107, .F. ) ;
#46 = ORIENTED_EDGE ( 'NONE', *, *, #105, .T. ) ;
#47 = EDGE_LOOP ( 'NONE', ( #46 ) ) ;
#48 = FACE_BOUND ( 'NONE', #34, .T. ) ;
#49 =( GEOMETRIC_REPRESENTATION_CONTEXT ( 3 ) GLOBAL_UNCERTAINTY_ASSIGNED_CONTEXT ( ( #5 ) ) GLOBAL_UNIT_ASSIGNED_CONTEXT ( ( #148, #150, #151 ) ) REPRESENTATION_CONTEXT ( 'NONE', 'WORKASPACE' ) );
#50 = APPROVAL_PERSON_ORGANIZATION ( #37, #104, #171 ) ;
#51 = SHAPE_DEFINITION_REPRESENTATION ( #6, #4 ) ;
#52 = ORGANIZATION ( 'UNSPECIFIED', 'UNSPECIFIED', '' ) ;
#53 = PERSON_AND_ORGANIZATION ( #1, #52 ) ;
#54 = PERSON_AND_ORGANIZATION ( #1, #52 ) ;
#55 = CIRCLE ( 'NONE', #97, 10.00000000000000000 ) ;
#56 = COORDINATED_UNIVERSAL_TIME_OFFSET ( 2, 0, .AHEAD. ) ;
#57 = LOCAL_TIME ( 9, 38, 25.00000000000000000, #56 ) ;
#58 = CALENDAR_DATE ( 2016, 18, 3 ) ;
#59 = DATE_AND_TIME ( #58, #57 ) ;
#60 = APPROVAL_DATE_TIME ( #59, #87 ) ;
#61 = EDGE_LOOP ( 'NONE', ( #30 ) ) ;
#62 = PERSON_AND_ORGANIZATION ( #1, #52 ) ;
#63 = APPROVAL_DATE_TIME ( #40, #104 ) ;
#64 = COORDINATED_UNIVERSAL_TIME_OFFSET ( 2, 0, .AHEAD. ) ;
#65 = LOCAL_TIME ( 9, 38, 25.00000000000000000, #64 ) ;
#66 = DATE_AND_TIME ( #67, #65 ) ;
#67 = CALENDAR_DATE ( 2016, 18, 3 ) ;
#68 = PERSON_AND_ORGANIZATION ( #1, #52 ) ;
#69 = APPROVAL_PERSON_ORGANIZATION ( #68, #93, #140 ) ;
#70 = COORDINATED_UNIVERSAL_TIME_OFFSET ( 2, 0, .AHEAD. ) ;
#71 = LOCAL_TIME ( 9, 38, 25.00000000000000000, #70 ) ;
#72 = CALENDAR_DATE ( 2016, 18, 3 ) ;
#73 = DATE_AND_TIME ( #72, #71 ) ;
#74 = APPROVAL_DATE_TIME ( #73, #93 ) ;
#75 = PERSON_AND_ORGANIZATION ( #1, #52 ) ;
#76 = PERSON_AND_ORGANIZATION ( #1, #52 ) ;
#77 = PERSON_AND_ORGANIZATION ( #1, #52 ) ;
#78 = COORDINATED_UNIVERSAL_TIME_OFFSET ( 2, 0, .AHEAD. ) ;
#79 = LOCAL_TIME ( 9, 38, 25.00000000000000000, #78 ) ;
#80 = CALENDAR_DATE ( 2016, 18, 3 ) ;
#81 = DATE_AND_TIME ( #80, #79 ) ;
#82 = CC_DESIGN_SECURITY_CLASSIFICATION ( #110, ( #89 ) ) ;
#83 = CC_DESIGN_PERSON_AND_ORGANIZATION_ASSIGNMENT ( #77, #145, ( #110 ) ) ;
#84 = CC_DESIGN_DATE_AND_TIME_ASSIGNMENT ( #66, #146, ( #88 ) ) ;
#85 = CC_DESIGN_PERSON_AND_ORGANIZATION_ASSIGNMENT ( #62, #129, ( #88 ) ) ;
#86 = CC_DESIGN_APPROVAL ( #87, ( #88 ) ) ;
#87 = APPROVAL ( #155, 'UNSPECIFIED' ) ;
#88 = PRODUCT_DEFINITION ( 'UNKNOWN', '', #89, #7 ) ;
#89 = PRODUCT_DEFINITION_FORMATION_WITH_SPECIFIED_SOURCE ( 'ANY', '', #2, .NOT_KNOWN. ) ;
#90 = CC_DESIGN_PERSON_AND_ORGANIZATION_ASSIGNMENT ( #53, #170, ( #2 ) ) ;
#91 = AXIS2_PLACEMENT_3D ( 'NONE', #157, #156, #158 ) ;
#92 = AXIS2_PLACEMENT_3D ( 'NONE', #119, #161, #153 ) ;
#93 = APPROVAL ( #168, 'UNSPECIFIED' ) ;
#94 = AXIS2_PLACEMENT_3D ( 'NONE', #126, #127, #128 ) ;
#95 = AXIS2_PLACEMENT_3D ( 'NONE', #130, #118, #114 ) ;
#96 = AXIS2_PLACEMENT_3D ( 'NONE', #121, #138, #142 ) ;
#97 = AXIS2_PLACEMENT_3D ( 'NONE', #122, #117, #147 ) ;
#98 = AXIS2_PLACEMENT_3D ( 'NONE', #133, #144, #169 ) ;
#99 = PRODUCT_RELATED_PRODUCT_CATEGORY ( 'detail', '', ( #2 ) ) ;
#100 = AXIS2_PLACEMENT_3D ( 'NONE', #143, #134, #163 ) ;
#101 = AXIS2_PLACEMENT_3D ( 'NONE', #141, #136, #131 ) ;
#102 = CC_DESIGN_PERSON_AND_ORGANIZATION_ASSIGNMENT ( #75, #174, ( #89 ) ) ;
#103 = AXIS2_PLACEMENT_3D ( 'NONE', #123, #124, #120 ) ;
#104 = APPROVAL ( #116, 'UNSPECIFIED' ) ;
#105 = EDGE_CURVE ( 'NONE', #152, #152, #25, .T. ) ;
#106 = EDGE_CURVE ( 'NONE', #125, #125, #55, .T. ) ;
#107 = EDGE_CURVE ( 'NONE', #173, #173, #14, .T. ) ;
#108 = EDGE_CURVE ( 'NONE', #167, #167, #41, .T. ) ;
#109 = CC_DESIGN_APPROVAL ( #104, ( #110 ) ) ;
#110 = SECURITY_CLASSIFICATION ( '', '', #115 ) ;
#111 = CC_DESIGN_DATE_AND_TIME_ASSIGNMENT ( #81, #160, ( #110 ) ) ;
#112 = CC_DESIGN_PERSON_AND_ORGANIZATION_ASSIGNMENT ( #76, #159, ( #89 ) ) ;
#113 = CC_DESIGN_APPROVAL ( #93, ( #89 ) ) ;
#114 = DIRECTION ( 'NONE',  ( 0.0000000000000000000, 0.0000000000000000000, 1.000000000000000000 ) ) ;
#115 = SECURITY_CLASSIFICATION_LEVEL ( 'unclassified' ) ;
#116 = APPROVAL_STATUS ( 'not_yet_approved' ) ;
#117 = DIRECTION ( 'NONE',  ( 1.000000000000000000, -0.0000000000000000000, -0.0000000000000000000 ) ) ;
#118 = DIRECTION ( 'NONE',  ( -1.000000000000000000, 0.0000000000000000000, 0.0000000000000000000 ) ) ;
#119 = CARTESIAN_POINT ( 'NONE',  ( 3000.000000000000000, 0.0000000000000000000, 0.0000000000000000000 ) ) ;
#120 = DIRECTION ( 'NONE',  ( 0.0000000000000000000, 0.0000000000000000000, -1.000000000000000000 ) ) ;
#121 = CARTESIAN_POINT ( 'NONE',  ( -3000.000000000000000, 0.0000000000000000000, 0.0000000000000000000 ) ) ;
#122 = CARTESIAN_POINT ( 'NONE',  ( -2999.500000000000900, 0.0000000000000000000, 0.0000000000000000000 ) ) ;
#123 = CARTESIAN_POINT ( 'NONE',  ( 2999.499999999999500, 0.0000000000000000000, 0.0000000000000000000 ) ) ;
#124 = DIRECTION ( 'NONE',  ( -1.000000000000000000, 0.0000000000000000000, 0.0000000000000000000 ) ) ;
#125 = VERTEX_POINT ( 'NONE', #132 ) ;
#126 = CARTESIAN_POINT ( 'NONE',  ( -2999.500000000000900, 0.0000000000000000000, 0.0000000000000000000 ) ) ;
#127 = DIRECTION ( 'NONE',  ( 1.000000000000000000, -0.0000000000000000000, -0.0000000000000000000 ) ) ;
#128 = DIRECTION ( 'NONE',  ( 0.0000000000000000000, 0.0000000000000000000, -1.000000000000000000 ) ) ;
#129 = PERSON_AND_ORGANIZATION_ROLE ( 'creator' ) ;
#130 = CARTESIAN_POINT ( 'NONE',  ( 3000.000000000000000, 0.0000000000000000000, 0.0000000000000000000 ) ) ;
#131 = DIRECTION ( 'NONE',  ( 0.0000000000000000000, 0.0000000000000000000, -1.000000000000000000 ) ) ;
#132 = CARTESIAN_POINT ( 'NONE',  ( -2999.500000000000900, 0.0000000000000000000, -10.00000000000000000 ) ) ;
#133 = CARTESIAN_POINT ( 'NONE',  ( -3000.000000000000000, 0.0000000000000000000, 0.0000000000000000000 ) ) ;
#134 = DIRECTION ( 'NONE',  ( 1.000000000000000000, 0.0000000000000000000, 0.0000000000000000000 ) ) ;
#135 = PLANE ( 'NONE',  #101 ) ;
#136 = DIRECTION ( 'NONE',  ( 1.000000000000000000, 0.0000000000000000000, 0.0000000000000000000 ) ) ;
#137 = APPROVAL_ROLE ( '' ) ;
#138 = DIRECTION ( 'NONE',  ( -1.000000000000000000, -0.0000000000000000000, -0.0000000000000000000 ) ) ;
#139 = CARTESIAN_POINT ( 'NONE',  ( -3000.000000000000000, 0.0000000000000000000, -9.500000000000952100 ) ) ;
#140 = APPROVAL_ROLE ( '' ) ;
#141 = CARTESIAN_POINT ( 'NONE',  ( 3000.000000000000000, 0.0000000000000000000, 0.0000000000000000000 ) ) ;
#142 = DIRECTION ( 'NONE',  ( 0.0000000000000000000, 0.0000000000000000000, -1.000000000000000000 ) ) ;
#143 = CARTESIAN_POINT ( 'NONE',  ( -3000.000000000000000, 0.0000000000000000000, 0.0000000000000000000 ) ) ;
#144 = DIRECTION ( 'NONE',  ( 1.000000000000000000, 0.0000000000000000000, 0.0000000000000000000 ) ) ;
#145 = PERSON_AND_ORGANIZATION_ROLE ( 'classification_officer' ) ;
#146 = DATE_TIME_ROLE ( 'creation_date' ) ;
#147 = DIRECTION ( 'NONE',  ( 0.0000000000000000000, 0.0000000000000000000, -1.000000000000000000 ) ) ;
#148 =( LENGTH_UNIT ( ) NAMED_UNIT ( * ) SI_UNIT ( .MILLI., .METRE. ) );
#149 = MECHANICAL_CONTEXT ( 'NONE', #166, 'mechanical' ) ;
#150 =( NAMED_UNIT ( * ) PLANE_ANGLE_UNIT ( ) SI_UNIT ( $, .RADIAN. ) );
#151 =( NAMED_UNIT ( * ) SI_UNIT ( $, .STERADIAN. ) SOLID_ANGLE_UNIT ( ) );
#152 = VERTEX_POINT ( 'NONE', #162 ) ;
#153 = DIRECTION ( 'NONE',  ( 0.0000000000000000000, 0.0000000000000000000, -1.000000000000000000 ) ) ;
#154 = APPLICATION_CONTEXT ( 'configuration controlled 3d designs of mechanical parts and assemblies' ) ;
#155 = APPROVAL_STATUS ( 'not_yet_approved' ) ;
#156 = DIRECTION ( 'NONE',  ( 0.0000000000000000000, 0.0000000000000000000, 1.000000000000000000 ) ) ;
#157 = CARTESIAN_POINT ( 'NONE',  ( 0.0000000000000000000, 0.0000000000000000000, 0.0000000000000000000 ) ) ;
#158 = DIRECTION ( 'NONE',  ( 1.000000000000000000, 0.0000000000000000000, 0.0000000000000000000 ) ) ;
#159 = PERSON_AND_ORGANIZATION_ROLE ( 'design_supplier' ) ;
#160 = DATE_TIME_ROLE ( 'classification_date' ) ;
#161 = DIRECTION ( 'NONE',  ( 1.000000000000000000, 0.0000000000000000000, 0.0000000000000000000 ) ) ;
#162 = CARTESIAN_POINT ( 'NONE',  ( 2999.499999999999500, 0.0000000000000000000, -10.00000000000000000 ) ) ;
#163 = DIRECTION ( 'NONE',  ( 0.0000000000000000000, 0.0000000000000000000, -1.000000000000000000 ) ) ;
#164 = APPLICATION_PROTOCOL_DEFINITION ( 'international standard', 'config_control_design', 1994, #154 ) ;
#165 = APPLICATION_PROTOCOL_DEFINITION ( 'international standard', 'config_control_design', 1994, #166 ) ;
#166 = APPLICATION_CONTEXT ( 'configuration controlled 3d designs of mechanical parts and assemblies' ) ;
#167 = VERTEX_POINT ( 'NONE', #172 ) ;
#168 = APPROVAL_STATUS ( 'not_yet_approved' ) ;
#169 = DIRECTION ( 'NONE',  ( 0.0000000000000000000, 0.0000000000000000000, -1.000000000000000000 ) ) ;
#170 = PERSON_AND_ORGANIZATION_ROLE ( 'design_owner' ) ;
#171 = APPROVAL_ROLE ( '' ) ;
#172 = CARTESIAN_POINT ( 'NONE',  ( 3000.000000000000000, 0.0000000000000000000, -9.499999999999175800 ) ) ;
#173 = VERTEX_POINT ( 'NONE', #139 ) ;
#174 = PERSON_AND_ORGANIZATION_ROLE ( 'creator' ) ;
#175 = PLANE ( 'NONE',  #100 ) ;
ENDSEC;
END-ISO-10303-21;
