ISO-10303-21;
HEADER;
FILE_DESCRIPTION (( 'STEP AP203' ),
    '1' );
FILE_NAME ('SF16.STEP',
    '2016-03-18T07:37:04',
    ( '' ),
    ( '' ),
    'SwSTEP 2.0',
    'SolidWorks 2010',
    '' );
FILE_SCHEMA (( 'CONFIG_CONTROL_DESIGN' ));
ENDSEC;

DATA;
#1 = PERSON ( 'UNSPECIFIED', 'UNSPECIFIED', 'UNSPECIFIED', ('UNSPECIFIED'), ('UNSPECIFIED'), ('UNSPECIFIED') ) ;
#2 = PRODUCT ( 'SF16', 'SF16', '', ( #165 ) ) ;
#3 = ADVANCED_FACE ( 'NONE', ( #34 ), #142, .T. ) ;
#4 = ADVANCED_FACE ( 'NONE', ( #51, #24 ), #30, .T. ) ;
#5 = ADVANCED_FACE ( 'NONE', ( #49 ), #132, .F. ) ;
#6 = MANIFOLD_SOLID_BREP ( 'Chamfer1', #28 ) ;
#7 = UNCERTAINTY_MEASURE_WITH_UNIT (LENGTH_MEASURE( 1.000000000000000100E-005 ), #154, 'distance_accuracy_value', 'NONE');
#8 = ADVANCED_BREP_SHAPE_REPRESENTATION ( 'SF16', ( #6, #88 ), #44 ) ;
#9 = PRODUCT_DEFINITION_SHAPE ( 'NONE', 'NONE',  #85 ) ;
#10 = DESIGN_CONTEXT ( 'detailed design', #172, 'design' ) ;
#11 = ADVANCED_FACE ( 'NONE', ( #22, #23 ), #25, .T. ) ;
#12 = ADVANCED_FACE ( 'NONE', ( #27, #21 ), #20, .T. ) ;
#13 = PERSON_AND_ORGANIZATION ( #1, #47 ) ;
#14 = PERSON_AND_ORGANIZATION ( #1, #47 ) ;
#15 = ORIENTED_EDGE ( 'NONE', *, *, #100, .F. ) ;
#16 = CIRCLE ( 'NONE', #95, 7.500000000000284200 ) ;
#17 = ORIENTED_EDGE ( 'NONE', *, *, #102, .T. ) ;
#18 = EDGE_LOOP ( 'NONE', ( #37 ) ) ;
#19 = EDGE_LOOP ( 'NONE', ( #81 ) ) ;
#20 = CONICAL_SURFACE ( 'NONE', #91, 7.500000000000284200, 0.7853981633983295700 ) ;
#21 = FACE_BOUND ( 'NONE', #19, .T. ) ;
#22 = FACE_BOUND ( 'NONE', #31, .T. ) ;
#23 = FACE_OUTER_BOUND ( 'NONE', #52, .T. ) ;
#24 = FACE_OUTER_BOUND ( 'NONE', #18, .T. ) ;
#25 = CONICAL_SURFACE ( 'NONE', #93, 8.000000000000000000, 0.7853981633965532200 ) ;
#26 = PERSON_AND_ORGANIZATION ( #1, #47 ) ;
#27 = FACE_OUTER_BOUND ( 'NONE', #32, .T. ) ;
#28 = CLOSED_SHELL ( 'NONE', ( #4, #5, #3, #11, #12 ) ) ;
#29 = COORDINATED_UNIVERSAL_TIME_OFFSET ( 2, 0, .AHEAD. ) ;
#30 = CYLINDRICAL_SURFACE ( 'NONE', #97, 8.000000000000000000 ) ;
#31 = EDGE_LOOP ( 'NONE', ( #48 ) ) ;
#32 = EDGE_LOOP ( 'NONE', ( #58 ) ) ;
#33 = EDGE_LOOP ( 'NONE', ( #54 ) ) ;
#34 = FACE_OUTER_BOUND ( 'NONE', #62, .T. ) ;
#35 = CIRCLE ( 'NONE', #94, 7.500000000000284200 ) ;
#36 = CIRCLE ( 'NONE', #89, 8.000000000000000000 ) ;
#37 = ORIENTED_EDGE ( 'NONE', *, *, #104, .T. ) ;
#38 = APPROVAL_PERSON_ORGANIZATION ( #26, #110, #169 ) ;
#39 = ORIENTED_EDGE ( 'NONE', *, *, #103, .T. ) ;
#40 = APPROVAL_DATE_TIME ( #42, #108 ) ;
#41 = LOCAL_TIME ( 9, 37, 4.000000000000000000, #29 ) ;
#42 = DATE_AND_TIME ( #80, #79 ) ;
#43 = PERSON_AND_ORGANIZATION ( #1, #47 ) ;
#44 =( GEOMETRIC_REPRESENTATION_CONTEXT ( 3 ) GLOBAL_UNCERTAINTY_ASSIGNED_CONTEXT ( ( #7 ) ) GLOBAL_UNIT_ASSIGNED_CONTEXT ( ( #154, #136, #144 ) ) REPRESENTATION_CONTEXT ( 'NONE', 'WORKASPACE' ) );
#45 = EDGE_LOOP ( 'NONE', ( #17 ) ) ;
#46 = SHAPE_DEFINITION_REPRESENTATION ( #9, #8 ) ;
#47 = ORGANIZATION ( 'UNSPECIFIED', 'UNSPECIFIED', '' ) ;
#48 = ORIENTED_EDGE ( 'NONE', *, *, #102, .F. ) ;
#49 = FACE_OUTER_BOUND ( 'NONE', #45, .T. ) ;
#50 = CIRCLE ( 'NONE', #99, 8.000000000000000000 ) ;
#51 = FACE_OUTER_BOUND ( 'NONE', #33, .T. ) ;
#52 = EDGE_LOOP ( 'NONE', ( #15 ) ) ;
#53 = PERSON_AND_ORGANIZATION ( #1, #47 ) ;
#54 = ORIENTED_EDGE ( 'NONE', *, *, #100, .T. ) ;
#55 = LOCAL_TIME ( 9, 37, 4.000000000000000000, #57 ) ;
#56 = PERSON_AND_ORGANIZATION ( #1, #47 ) ;
#57 = COORDINATED_UNIVERSAL_TIME_OFFSET ( 2, 0, .AHEAD. ) ;
#58 = ORIENTED_EDGE ( 'NONE', *, *, #104, .F. ) ;
#59 = CALENDAR_DATE ( 2016, 18, 3 ) ;
#60 = DATE_AND_TIME ( #59, #41 ) ;
#61 = APPROVAL_PERSON_ORGANIZATION ( #13, #84, #122 ) ;
#62 = EDGE_LOOP ( 'NONE', ( #39 ) ) ;
#63 = APPROVAL_DATE_TIME ( #60, #110 ) ;
#64 = CALENDAR_DATE ( 2016, 18, 3 ) ;
#65 = DATE_AND_TIME ( #64, #55 ) ;
#66 = COORDINATED_UNIVERSAL_TIME_OFFSET ( 2, 0, .AHEAD. ) ;
#67 = LOCAL_TIME ( 9, 37, 4.000000000000000000, #66 ) ;
#68 = CALENDAR_DATE ( 2016, 18, 3 ) ;
#69 = DATE_AND_TIME ( #68, #67 ) ;
#70 = APPROVAL_DATE_TIME ( #69, #84 ) ;
#71 = PERSON_AND_ORGANIZATION ( #1, #47 ) ;
#72 = LOCAL_TIME ( 9, 37, 4.000000000000000000, #73 ) ;
#73 = COORDINATED_UNIVERSAL_TIME_OFFSET ( 2, 0, .AHEAD. ) ;
#74 = CALENDAR_DATE ( 2016, 18, 3 ) ;
#75 = DATE_AND_TIME ( #74, #72 ) ;
#76 = PERSON_AND_ORGANIZATION ( #1, #47 ) ;
#77 = APPROVAL_PERSON_ORGANIZATION ( #76, #108, #162 ) ;
#78 = COORDINATED_UNIVERSAL_TIME_OFFSET ( 2, 0, .AHEAD. ) ;
#79 = LOCAL_TIME ( 9, 37, 4.000000000000000000, #78 ) ;
#80 = CALENDAR_DATE ( 2016, 18, 3 ) ;
#81 = ORIENTED_EDGE ( 'NONE', *, *, #103, .F. ) ;
#82 = CC_DESIGN_PERSON_AND_ORGANIZATION_ASSIGNMENT ( #56, #147, ( #101 ) ) ;
#83 = CC_DESIGN_APPROVAL ( #84, ( #85 ) ) ;
#84 = APPROVAL ( #129, 'UNSPECIFIED' ) ;
#85 = PRODUCT_DEFINITION ( 'UNKNOWN', '', #105, #10 ) ;
#86 = CC_DESIGN_PERSON_AND_ORGANIZATION_ASSIGNMENT ( #14, #140, ( #2 ) ) ;
#87 = CC_DESIGN_APPROVAL ( #108, ( #105 ) ) ;
#88 = AXIS2_PLACEMENT_3D ( 'NONE', #166, #173, #167 ) ;
#89 = AXIS2_PLACEMENT_3D ( 'NONE', #120, #143, #134 ) ;
#90 = CC_DESIGN_SECURITY_CLASSIFICATION ( #101, ( #105 ) ) ;
#91 = AXIS2_PLACEMENT_3D ( 'NONE', #128, #130, #131 ) ;
#92 = CC_DESIGN_PERSON_AND_ORGANIZATION_ASSIGNMENT ( #53, #119, ( #105 ) ) ;
#93 = AXIS2_PLACEMENT_3D ( 'NONE', #133, #159, #153 ) ;
#94 = AXIS2_PLACEMENT_3D ( 'NONE', #123, #164, #127 ) ;
#95 = AXIS2_PLACEMENT_3D ( 'NONE', #124, #115, #161 ) ;
#96 = AXIS2_PLACEMENT_3D ( 'NONE', #139, #135, #148 ) ;
#97 = AXIS2_PLACEMENT_3D ( 'NONE', #152, #141, #145 ) ;
#98 = AXIS2_PLACEMENT_3D ( 'NONE', #138, #137, #151 ) ;
#99 = AXIS2_PLACEMENT_3D ( 'NONE', #125, #126, #121 ) ;
#100 = EDGE_CURVE ( 'NONE', #175, #175, #50, .T. ) ;
#101 = SECURITY_CLASSIFICATION ( '', '', #174 ) ;
#102 = EDGE_CURVE ( 'NONE', #157, #157, #16, .T. ) ;
#103 = EDGE_CURVE ( 'NONE', #171, #171, #35, .T. ) ;
#104 = EDGE_CURVE ( 'NONE', #155, #155, #36, .T. ) ;
#105 = PRODUCT_DEFINITION_FORMATION_WITH_SPECIFIED_SOURCE ( 'ANY', '', #2, .NOT_KNOWN. ) ;
#106 = CC_DESIGN_PERSON_AND_ORGANIZATION_ASSIGNMENT ( #43, #160, ( #105 ) ) ;
#107 = PRODUCT_RELATED_PRODUCT_CATEGORY ( 'detail', '', ( #2 ) ) ;
#108 = APPROVAL ( #116, 'UNSPECIFIED' ) ;
#109 = CC_DESIGN_APPROVAL ( #110, ( #101 ) ) ;
#110 = APPROVAL ( #117, 'UNSPECIFIED' ) ;
#111 = CC_DESIGN_DATE_AND_TIME_ASSIGNMENT ( #65, #158, ( #101 ) ) ;
#112 = CC_DESIGN_DATE_AND_TIME_ASSIGNMENT ( #75, #150, ( #85 ) ) ;
#113 = CC_DESIGN_PERSON_AND_ORGANIZATION_ASSIGNMENT ( #71, #146, ( #85 ) ) ;
#114 = APPLICATION_PROTOCOL_DEFINITION ( 'international standard', 'config_control_design', 1994, #172 ) ;
#115 = DIRECTION ( 'NONE',  ( -1.000000000000000000, -0.0000000000000000000, -0.0000000000000000000 ) ) ;
#116 = APPROVAL_STATUS ( 'not_yet_approved' ) ;
#117 = APPROVAL_STATUS ( 'not_yet_approved' ) ;
#118 = CARTESIAN_POINT ( 'NONE',  ( 2999.500000000001400, 0.0000000000000000000, -8.000000000000000000 ) ) ;
#119 = PERSON_AND_ORGANIZATION_ROLE ( 'design_supplier' ) ;
#120 = CARTESIAN_POINT ( 'NONE',  ( 2999.500000000001400, 0.0000000000000000000, 0.0000000000000000000 ) ) ;
#121 = DIRECTION ( 'NONE',  ( 0.0000000000000000000, 0.0000000000000000000, -1.000000000000000000 ) ) ;
#122 = APPROVAL_ROLE ( '' ) ;
#123 = CARTESIAN_POINT ( 'NONE',  ( 3000.000000000000000, 0.0000000000000000000, 0.0000000000000000000 ) ) ;
#124 = CARTESIAN_POINT ( 'NONE',  ( -3000.000000000000000, 0.0000000000000000000, 0.0000000000000000000 ) ) ;
#125 = CARTESIAN_POINT ( 'NONE',  ( -2999.499999999999500, 0.0000000000000000000, 0.0000000000000000000 ) ) ;
#126 = DIRECTION ( 'NONE',  ( 1.000000000000000000, -0.0000000000000000000, -0.0000000000000000000 ) ) ;
#127 = DIRECTION ( 'NONE',  ( 0.0000000000000000000, 0.0000000000000000000, -1.000000000000000000 ) ) ;
#128 = CARTESIAN_POINT ( 'NONE',  ( 3000.000000000000000, 0.0000000000000000000, 0.0000000000000000000 ) ) ;
#129 = APPROVAL_STATUS ( 'not_yet_approved' ) ;
#130 = DIRECTION ( 'NONE',  ( -1.000000000000000000, 0.0000000000000000000, 0.0000000000000000000 ) ) ;
#131 = DIRECTION ( 'NONE',  ( 0.0000000000000000000, 0.0000000000000000000, 1.000000000000000000 ) ) ;
#132 = PLANE ( 'NONE',  #96 ) ;
#133 = CARTESIAN_POINT ( 'NONE',  ( -2999.499999999999500, 0.0000000000000000000, 0.0000000000000000000 ) ) ;
#134 = DIRECTION ( 'NONE',  ( 0.0000000000000000000, 0.0000000000000000000, -1.000000000000000000 ) ) ;
#135 = DIRECTION ( 'NONE',  ( 1.000000000000000000, 0.0000000000000000000, 0.0000000000000000000 ) ) ;
#136 =( NAMED_UNIT ( * ) PLANE_ANGLE_UNIT ( ) SI_UNIT ( $, .RADIAN. ) );
#137 = DIRECTION ( 'NONE',  ( 1.000000000000000000, 0.0000000000000000000, 0.0000000000000000000 ) ) ;
#138 = CARTESIAN_POINT ( 'NONE',  ( 3000.000000000000000, 0.0000000000000000000, 0.0000000000000000000 ) ) ;
#139 = CARTESIAN_POINT ( 'NONE',  ( -3000.000000000000000, 0.0000000000000000000, 0.0000000000000000000 ) ) ;
#140 = PERSON_AND_ORGANIZATION_ROLE ( 'design_owner' ) ;
#141 = DIRECTION ( 'NONE',  ( 1.000000000000000000, 0.0000000000000000000, 0.0000000000000000000 ) ) ;
#142 = PLANE ( 'NONE',  #98 ) ;
#143 = DIRECTION ( 'NONE',  ( -1.000000000000000000, 0.0000000000000000000, 0.0000000000000000000 ) ) ;
#144 =( NAMED_UNIT ( * ) SI_UNIT ( $, .STERADIAN. ) SOLID_ANGLE_UNIT ( ) );
#145 = DIRECTION ( 'NONE',  ( 0.0000000000000000000, 0.0000000000000000000, -1.000000000000000000 ) ) ;
#146 = PERSON_AND_ORGANIZATION_ROLE ( 'creator' ) ;
#147 = PERSON_AND_ORGANIZATION_ROLE ( 'classification_officer' ) ;
#148 = DIRECTION ( 'NONE',  ( 0.0000000000000000000, 0.0000000000000000000, -1.000000000000000000 ) ) ;
#149 = APPLICATION_PROTOCOL_DEFINITION ( 'international standard', 'config_control_design', 1994, #168 ) ;
#150 = DATE_TIME_ROLE ( 'creation_date' ) ;
#151 = DIRECTION ( 'NONE',  ( 0.0000000000000000000, 0.0000000000000000000, -1.000000000000000000 ) ) ;
#152 = CARTESIAN_POINT ( 'NONE',  ( -3000.000000000000000, 0.0000000000000000000, 0.0000000000000000000 ) ) ;
#153 = DIRECTION ( 'NONE',  ( 0.0000000000000000000, 0.0000000000000000000, -1.000000000000000000 ) ) ;
#154 =( LENGTH_UNIT ( ) NAMED_UNIT ( * ) SI_UNIT ( .MILLI., .METRE. ) );
#155 = VERTEX_POINT ( 'NONE', #118 ) ;
#156 = CARTESIAN_POINT ( 'NONE',  ( -2999.499999999999500, 0.0000000000000000000, -8.000000000000000000 ) ) ;
#157 = VERTEX_POINT ( 'NONE', #170 ) ;
#158 = DATE_TIME_ROLE ( 'classification_date' ) ;
#159 = DIRECTION ( 'NONE',  ( 1.000000000000000000, -0.0000000000000000000, -0.0000000000000000000 ) ) ;
#160 = PERSON_AND_ORGANIZATION_ROLE ( 'creator' ) ;
#161 = DIRECTION ( 'NONE',  ( 0.0000000000000000000, 0.0000000000000000000, -1.000000000000000000 ) ) ;
#162 = APPROVAL_ROLE ( '' ) ;
#163 = CARTESIAN_POINT ( 'NONE',  ( 3000.000000000000000, 0.0000000000000000000, -7.500000000000284200 ) ) ;
#164 = DIRECTION ( 'NONE',  ( 1.000000000000000000, 0.0000000000000000000, 0.0000000000000000000 ) ) ;
#165 = MECHANICAL_CONTEXT ( 'NONE', #168, 'mechanical' ) ;
#166 = CARTESIAN_POINT ( 'NONE',  ( 0.0000000000000000000, 0.0000000000000000000, 0.0000000000000000000 ) ) ;
#167 = DIRECTION ( 'NONE',  ( 1.000000000000000000, 0.0000000000000000000, 0.0000000000000000000 ) ) ;
#168 = APPLICATION_CONTEXT ( 'configuration controlled 3d designs of mechanical parts and assemblies' ) ;
#169 = APPROVAL_ROLE ( '' ) ;
#170 = CARTESIAN_POINT ( 'NONE',  ( -3000.000000000000000, 0.0000000000000000000, -7.500000000000284200 ) ) ;
#171 = VERTEX_POINT ( 'NONE', #163 ) ;
#172 = APPLICATION_CONTEXT ( 'configuration controlled 3d designs of mechanical parts and assemblies' ) ;
#173 = DIRECTION ( 'NONE',  ( 0.0000000000000000000, 0.0000000000000000000, 1.000000000000000000 ) ) ;
#174 = SECURITY_CLASSIFICATION_LEVEL ( 'unclassified' ) ;
#175 = VERTEX_POINT ( 'NONE', #156 ) ;
ENDSEC;
END-ISO-10303-21;
