ISO-10303-21;
HEADER;
FILE_DESCRIPTION (( 'STEP AP203' ),
    '1' );
FILE_NAME ('SF14.STEP',
    '2016-03-18T07:36:28',
    ( '' ),
    ( '' ),
    'SwSTEP 2.0',
    'SolidWorks 2010',
    '' );
FILE_SCHEMA (( 'CONFIG_CONTROL_DESIGN' ));
ENDSEC;

DATA;
#1 = PRODUCT ( 'SF14', 'SF14', '', ( #163 ) ) ;
#2 = PERSON ( 'UNSPECIFIED', 'UNSPECIFIED', 'UNSPECIFIED', ('UNSPECIFIED'), ('UNSPECIFIED'), ('UNSPECIFIED') ) ;
#3 = ADVANCED_FACE ( 'NONE', ( #87, #58 ), #95, .T. ) ;
#4 = ADVANCED_FACE ( 'NONE', ( #59 ), #170, .T. ) ;
#5 = ADVANCED_FACE ( 'NONE', ( #56, #67 ), #75, .T. ) ;
#6 = ADVANCED_FACE ( 'NONE', ( #91, #89 ), #62, .T. ) ;
#7 = ADVANCED_FACE ( 'NONE', ( #76 ), #146, .F. ) ;
#8 = UNCERTAINTY_MEASURE_WITH_UNIT (LENGTH_MEASURE( 1.000000000000000100E-005 ), #175, 'distance_accuracy_value', 'NONE');
#9 = MANIFOLD_SOLID_BREP ( 'Chamfer1', #98 ) ;
#10 = ADVANCED_BREP_SHAPE_REPRESENTATION ( 'SF14', ( #9, #23 ), #93 ) ;
#11 = DESIGN_CONTEXT ( 'detailed design', #164, 'design' ) ;
#12 = PRODUCT_DEFINITION_SHAPE ( 'NONE', 'NONE',  #13 ) ;
#13 = PRODUCT_DEFINITION ( 'UNKNOWN', '', #16, #11 ) ;
#14 = CC_DESIGN_APPROVAL ( #24, ( #13 ) ) ;
#15 = CC_DESIGN_DATE_AND_TIME_ASSIGNMENT ( #66, #132, ( #13 ) ) ;
#16 = PRODUCT_DEFINITION_FORMATION_WITH_SPECIFIED_SOURCE ( 'ANY', '', #1, .NOT_KNOWN. ) ;
#17 = CC_DESIGN_APPROVAL ( #39, ( #16 ) ) ;
#18 = SECURITY_CLASSIFICATION ( '', '', #151 ) ;
#19 = CC_DESIGN_PERSON_AND_ORGANIZATION_ASSIGNMENT ( #54, #173, ( #16 ) ) ;
#20 = CC_DESIGN_PERSON_AND_ORGANIZATION_ASSIGNMENT ( #70, #159, ( #13 ) ) ;
#21 = CC_DESIGN_PERSON_AND_ORGANIZATION_ASSIGNMENT ( #49, #152, ( #1 ) ) ;
#22 = CC_DESIGN_PERSON_AND_ORGANIZATION_ASSIGNMENT ( #97, #161, ( #16 ) ) ;
#23 = AXIS2_PLACEMENT_3D ( 'NONE', #155, #120, #156 ) ;
#24 = APPROVAL ( #116, 'UNSPECIFIED' ) ;
#25 = AXIS2_PLACEMENT_3D ( 'NONE', #124, #133, #147 ) ;
#26 = AXIS2_PLACEMENT_3D ( 'NONE', #126, #148, #142 ) ;
#27 = AXIS2_PLACEMENT_3D ( 'NONE', #141, #123, #121 ) ;
#28 = AXIS2_PLACEMENT_3D ( 'NONE', #137, #119, #131 ) ;
#29 = AXIS2_PLACEMENT_3D ( 'NONE', #118, #117, #165 ) ;
#30 = AXIS2_PLACEMENT_3D ( 'NONE', #130, #128, #127 ) ;
#31 = AXIS2_PLACEMENT_3D ( 'NONE', #135, #122, #125 ) ;
#32 = EDGE_CURVE ( 'NONE', #174, #174, #81, .T. ) ;
#33 = CC_DESIGN_PERSON_AND_ORGANIZATION_ASSIGNMENT ( #83, #157, ( #18 ) ) ;
#34 = EDGE_CURVE ( 'NONE', #150, #150, #79, .T. ) ;
#35 = EDGE_CURVE ( 'NONE', #134, #134, #80, .T. ) ;
#36 = EDGE_CURVE ( 'NONE', #169, #169, #78, .T. ) ;
#37 = AXIS2_PLACEMENT_3D ( 'NONE', #149, #144, #139 ) ;
#38 = AXIS2_PLACEMENT_3D ( 'NONE', #166, #136, #115 ) ;
#39 = APPROVAL ( #172, 'UNSPECIFIED' ) ;
#40 = CALENDAR_DATE ( 2016, 18, 3 ) ;
#41 = LOCAL_TIME ( 9, 36, 28.00000000000000000, #42 ) ;
#42 = COORDINATED_UNIVERSAL_TIME_OFFSET ( 2, 0, .AHEAD. ) ;
#43 = CALENDAR_DATE ( 2016, 18, 3 ) ;
#44 = APPROVAL_PERSON_ORGANIZATION ( #46, #24, #114 ) ;
#45 = ORIENTED_EDGE ( 'NONE', *, *, #32, .T. ) ;
#46 = PERSON_AND_ORGANIZATION ( #2, #50 ) ;
#47 = EDGE_LOOP ( 'NONE', ( #90 ) ) ;
#48 = EDGE_LOOP ( 'NONE', ( #96 ) ) ;
#49 = PERSON_AND_ORGANIZATION ( #2, #50 ) ;
#50 = ORGANIZATION ( 'UNSPECIFIED', 'UNSPECIFIED', '' ) ;
#51 = COORDINATED_UNIVERSAL_TIME_OFFSET ( 2, 0, .AHEAD. ) ;
#52 = EDGE_LOOP ( 'NONE', ( #53 ) ) ;
#53 = ORIENTED_EDGE ( 'NONE', *, *, #36, .T. ) ;
#54 = PERSON_AND_ORGANIZATION ( #2, #50 ) ;
#55 = DATE_AND_TIME ( #57, #60 ) ;
#56 = FACE_OUTER_BOUND ( 'NONE', #48, .T. ) ;
#57 = CALENDAR_DATE ( 2016, 18, 3 ) ;
#58 = FACE_OUTER_BOUND ( 'NONE', #108, .T. ) ;
#59 = FACE_OUTER_BOUND ( 'NONE', #47, .T. ) ;
#60 = LOCAL_TIME ( 9, 36, 28.00000000000000000, #61 ) ;
#61 = COORDINATED_UNIVERSAL_TIME_OFFSET ( 2, 0, .AHEAD. ) ;
#62 = CYLINDRICAL_SURFACE ( 'NONE', #37, 7.000000000000000000 ) ;
#63 = APPROVAL_DATE_TIME ( #55, #39 ) ;
#64 = APPROVAL_PERSON_ORGANIZATION ( #65, #39, #158 ) ;
#65 = PERSON_AND_ORGANIZATION ( #2, #50 ) ;
#66 = DATE_AND_TIME ( #68, #69 ) ;
#67 = FACE_BOUND ( 'NONE', #84, .T. ) ;
#68 = CALENDAR_DATE ( 2016, 18, 3 ) ;
#69 = LOCAL_TIME ( 9, 36, 28.00000000000000000, #71 ) ;
#70 = PERSON_AND_ORGANIZATION ( #2, #50 ) ;
#71 = COORDINATED_UNIVERSAL_TIME_OFFSET ( 2, 0, .AHEAD. ) ;
#72 = APPROVAL_DATE_TIME ( #85, #24 ) ;
#73 = EDGE_LOOP ( 'NONE', ( #86 ) ) ;
#74 = ORIENTED_EDGE ( 'NONE', *, *, #36, .F. ) ;
#75 = CONICAL_SURFACE ( 'NONE', #28, 6.499999999999062100, 0.7853981633977753500 ) ;
#76 = FACE_OUTER_BOUND ( 'NONE', #88, .T. ) ;
#77 = EDGE_LOOP ( 'NONE', ( #103 ) ) ;
#78 = CIRCLE ( 'NONE', #25, 7.000000000000000000 ) ;
#79 = CIRCLE ( 'NONE', #27, 7.000000000000000000 ) ;
#80 = CIRCLE ( 'NONE', #26, 6.499999999999062100 ) ;
#81 = CIRCLE ( 'NONE', #31, 6.499999999999950300 ) ;
#82 = ORIENTED_EDGE ( 'NONE', *, *, #35, .F. ) ;
#83 = PERSON_AND_ORGANIZATION ( #2, #50 ) ;
#84 = EDGE_LOOP ( 'NONE', ( #82 ) ) ;
#85 = DATE_AND_TIME ( #40, #41 ) ;
#86 = ORIENTED_EDGE ( 'NONE', *, *, #32, .F. ) ;
#87 = FACE_BOUND ( 'NONE', #73, .T. ) ;
#88 = EDGE_LOOP ( 'NONE', ( #45 ) ) ;
#89 = FACE_OUTER_BOUND ( 'NONE', #77, .T. ) ;
#90 = ORIENTED_EDGE ( 'NONE', *, *, #35, .T. ) ;
#91 = FACE_OUTER_BOUND ( 'NONE', #52, .T. ) ;
#92 = LOCAL_TIME ( 9, 36, 28.00000000000000000, #51 ) ;
#93 =( GEOMETRIC_REPRESENTATION_CONTEXT ( 3 ) GLOBAL_UNCERTAINTY_ASSIGNED_CONTEXT ( ( #8 ) ) GLOBAL_UNIT_ASSIGNED_CONTEXT ( ( #175, #145, #154 ) ) REPRESENTATION_CONTEXT ( 'NONE', 'WORKASPACE' ) );
#94 = SHAPE_DEFINITION_REPRESENTATION ( #12, #10 ) ;
#95 = CONICAL_SURFACE ( 'NONE', #29, 7.000000000000000000, 0.7853981633973311500 ) ;
#96 = ORIENTED_EDGE ( 'NONE', *, *, #34, .F. ) ;
#97 = PERSON_AND_ORGANIZATION ( #2, #50 ) ;
#98 = CLOSED_SHELL ( 'NONE', ( #6, #7, #4, #3, #5 ) ) ;
#99 = LOCAL_TIME ( 9, 36, 28.00000000000000000, #107 ) ;
#100 = CALENDAR_DATE ( 2016, 18, 3 ) ;
#101 = DATE_AND_TIME ( #100, #99 ) ;
#102 = APPROVAL_DATE_TIME ( #101, #109 ) ;
#103 = ORIENTED_EDGE ( 'NONE', *, *, #34, .T. ) ;
#104 = DATE_AND_TIME ( #43, #92 ) ;
#105 = PERSON_AND_ORGANIZATION ( #2, #50 ) ;
#106 = APPROVAL_PERSON_ORGANIZATION ( #105, #109, #160 ) ;
#107 = COORDINATED_UNIVERSAL_TIME_OFFSET ( 2, 0, .AHEAD. ) ;
#108 = EDGE_LOOP ( 'NONE', ( #74 ) ) ;
#109 = APPROVAL ( #143, 'UNSPECIFIED' ) ;
#110 = CC_DESIGN_SECURITY_CLASSIFICATION ( #18, ( #16 ) ) ;
#111 = CC_DESIGN_DATE_AND_TIME_ASSIGNMENT ( #104, #167, ( #18 ) ) ;
#112 = CC_DESIGN_APPROVAL ( #109, ( #18 ) ) ;
#113 = PRODUCT_RELATED_PRODUCT_CATEGORY ( 'detail', '', ( #1 ) ) ;
#114 = APPROVAL_ROLE ( '' ) ;
#115 = DIRECTION ( 'NONE',  ( 0.0000000000000000000, 0.0000000000000000000, -1.000000000000000000 ) ) ;
#116 = APPROVAL_STATUS ( 'not_yet_approved' ) ;
#117 = DIRECTION ( 'NONE',  ( 1.000000000000000000, -0.0000000000000000000, -0.0000000000000000000 ) ) ;
#118 = CARTESIAN_POINT ( 'NONE',  ( -2999.500000000000000, 0.0000000000000000000, 0.0000000000000000000 ) ) ;
#119 = DIRECTION ( 'NONE',  ( -1.000000000000000000, 0.0000000000000000000, 0.0000000000000000000 ) ) ;
#120 = DIRECTION ( 'NONE',  ( 0.0000000000000000000, 0.0000000000000000000, 1.000000000000000000 ) ) ;
#121 = DIRECTION ( 'NONE',  ( 0.0000000000000000000, 0.0000000000000000000, -1.000000000000000000 ) ) ;
#122 = DIRECTION ( 'NONE',  ( -1.000000000000000000, -0.0000000000000000000, -0.0000000000000000000 ) ) ;
#123 = DIRECTION ( 'NONE',  ( -1.000000000000000000, 0.0000000000000000000, 0.0000000000000000000 ) ) ;
#124 = CARTESIAN_POINT ( 'NONE',  ( -2999.500000000000000, 0.0000000000000000000, 0.0000000000000000000 ) ) ;
#125 = DIRECTION ( 'NONE',  ( 0.0000000000000000000, 0.0000000000000000000, -1.000000000000000000 ) ) ;
#126 = CARTESIAN_POINT ( 'NONE',  ( 3000.000000000000000, 0.0000000000000000000, 0.0000000000000000000 ) ) ;
#127 = DIRECTION ( 'NONE',  ( 0.0000000000000000000, 0.0000000000000000000, -1.000000000000000000 ) ) ;
#128 = DIRECTION ( 'NONE',  ( 1.000000000000000000, 0.0000000000000000000, 0.0000000000000000000 ) ) ;
#129 = APPLICATION_PROTOCOL_DEFINITION ( 'international standard', 'config_control_design', 1994, #164 ) ;
#130 = CARTESIAN_POINT ( 'NONE',  ( -3000.000000000000000, 0.0000000000000000000, 0.0000000000000000000 ) ) ;
#131 = DIRECTION ( 'NONE',  ( 0.0000000000000000000, 0.0000000000000000000, 1.000000000000000000 ) ) ;
#132 = DATE_TIME_ROLE ( 'creation_date' ) ;
#133 = DIRECTION ( 'NONE',  ( 1.000000000000000000, -0.0000000000000000000, -0.0000000000000000000 ) ) ;
#134 = VERTEX_POINT ( 'NONE', #168 ) ;
#135 = CARTESIAN_POINT ( 'NONE',  ( -3000.000000000000000, 0.0000000000000000000, 0.0000000000000000000 ) ) ;
#136 = DIRECTION ( 'NONE',  ( 1.000000000000000000, 0.0000000000000000000, 0.0000000000000000000 ) ) ;
#137 = CARTESIAN_POINT ( 'NONE',  ( 3000.000000000000000, 0.0000000000000000000, 0.0000000000000000000 ) ) ;
#138 = CARTESIAN_POINT ( 'NONE',  ( -3000.000000000000000, 0.0000000000000000000, -6.499999999999950300 ) ) ;
#139 = DIRECTION ( 'NONE',  ( 0.0000000000000000000, 0.0000000000000000000, -1.000000000000000000 ) ) ;
#140 = APPLICATION_CONTEXT ( 'configuration controlled 3d designs of mechanical parts and assemblies' ) ;
#141 = CARTESIAN_POINT ( 'NONE',  ( 2999.499999999999500, 0.0000000000000000000, 0.0000000000000000000 ) ) ;
#142 = DIRECTION ( 'NONE',  ( 0.0000000000000000000, 0.0000000000000000000, -1.000000000000000000 ) ) ;
#143 = APPROVAL_STATUS ( 'not_yet_approved' ) ;
#144 = DIRECTION ( 'NONE',  ( 1.000000000000000000, 0.0000000000000000000, 0.0000000000000000000 ) ) ;
#145 =( NAMED_UNIT ( * ) PLANE_ANGLE_UNIT ( ) SI_UNIT ( $, .RADIAN. ) );
#146 = PLANE ( 'NONE',  #30 ) ;
#147 = DIRECTION ( 'NONE',  ( 0.0000000000000000000, 0.0000000000000000000, -1.000000000000000000 ) ) ;
#148 = DIRECTION ( 'NONE',  ( 1.000000000000000000, 0.0000000000000000000, 0.0000000000000000000 ) ) ;
#149 = CARTESIAN_POINT ( 'NONE',  ( -3000.000000000000000, 0.0000000000000000000, 0.0000000000000000000 ) ) ;
#150 = VERTEX_POINT ( 'NONE', #153 ) ;
#151 = SECURITY_CLASSIFICATION_LEVEL ( 'unclassified' ) ;
#152 = PERSON_AND_ORGANIZATION_ROLE ( 'design_owner' ) ;
#153 = CARTESIAN_POINT ( 'NONE',  ( 2999.499999999999500, 0.0000000000000000000, -7.000000000000000000 ) ) ;
#154 =( NAMED_UNIT ( * ) SI_UNIT ( $, .STERADIAN. ) SOLID_ANGLE_UNIT ( ) );
#155 = CARTESIAN_POINT ( 'NONE',  ( 0.0000000000000000000, 0.0000000000000000000, 0.0000000000000000000 ) ) ;
#156 = DIRECTION ( 'NONE',  ( 1.000000000000000000, 0.0000000000000000000, 0.0000000000000000000 ) ) ;
#157 = PERSON_AND_ORGANIZATION_ROLE ( 'classification_officer' ) ;
#158 = APPROVAL_ROLE ( '' ) ;
#159 = PERSON_AND_ORGANIZATION_ROLE ( 'creator' ) ;
#160 = APPROVAL_ROLE ( '' ) ;
#161 = PERSON_AND_ORGANIZATION_ROLE ( 'design_supplier' ) ;
#162 = APPLICATION_PROTOCOL_DEFINITION ( 'international standard', 'config_control_design', 1994, #140 ) ;
#163 = MECHANICAL_CONTEXT ( 'NONE', #140, 'mechanical' ) ;
#164 = APPLICATION_CONTEXT ( 'configuration controlled 3d designs of mechanical parts and assemblies' ) ;
#165 = DIRECTION ( 'NONE',  ( 0.0000000000000000000, 0.0000000000000000000, -1.000000000000000000 ) ) ;
#166 = CARTESIAN_POINT ( 'NONE',  ( 3000.000000000000000, 0.0000000000000000000, 0.0000000000000000000 ) ) ;
#167 = DATE_TIME_ROLE ( 'classification_date' ) ;
#168 = CARTESIAN_POINT ( 'NONE',  ( 3000.000000000000000, 0.0000000000000000000, -6.499999999999062100 ) ) ;
#169 = VERTEX_POINT ( 'NONE', #171 ) ;
#170 = PLANE ( 'NONE',  #38 ) ;
#171 = CARTESIAN_POINT ( 'NONE',  ( -2999.500000000000000, 0.0000000000000000000, -7.000000000000000000 ) ) ;
#172 = APPROVAL_STATUS ( 'not_yet_approved' ) ;
#173 = PERSON_AND_ORGANIZATION_ROLE ( 'creator' ) ;
#174 = VERTEX_POINT ( 'NONE', #138 ) ;
#175 =( LENGTH_UNIT ( ) NAMED_UNIT ( * ) SI_UNIT ( .MILLI., .METRE. ) );
ENDSEC;
END-ISO-10303-21;
