ISO-10303-21;
HEADER;
FILE_DESCRIPTION (( 'STEP AP203' ),
    '1' );
FILE_NAME ('SF12.STEP',
    '2016-03-18T07:36:02',
    ( '' ),
    ( '' ),
    'SwSTEP 2.0',
    'SolidWorks 2010',
    '' );
FILE_SCHEMA (( 'CONFIG_CONTROL_DESIGN' ));
ENDSEC;

DATA;
#1 = PERSON ( 'UNSPECIFIED', 'UNSPECIFIED', 'UNSPECIFIED', ('UNSPECIFIED'), ('UNSPECIFIED'), ('UNSPECIFIED') ) ;
#2 = PRODUCT ( 'SF12', 'SF12', '', ( #170 ) ) ;
#3 = MANIFOLD_SOLID_BREP ( 'Chamfer1', #21 ) ;
#4 = UNCERTAINTY_MEASURE_WITH_UNIT (LENGTH_MEASURE( 1.000000000000000100E-005 ), #125, 'distance_accuracy_value', 'NONE');
#5 = ADVANCED_BREP_SHAPE_REPRESENTATION ( 'SF12', ( #3, #99 ), #61 ) ;
#6 = DESIGN_CONTEXT ( 'detailed design', #115, 'design' ) ;
#7 = PRODUCT_DEFINITION_SHAPE ( 'NONE', 'NONE',  #90 ) ;
#8 = ADVANCED_FACE ( 'NONE', ( #55, #53 ), #15, .T. ) ;
#9 = ADVANCED_FACE ( 'NONE', ( #54 ), #166, .F. ) ;
#10 = ADVANCED_FACE ( 'NONE', ( #59, #57 ), #18, .T. ) ;
#11 = ADVANCED_FACE ( 'NONE', ( #58, #14 ), #31, .T. ) ;
#12 = CIRCLE ( 'NONE', #93, 6.000000000000000900 ) ;
#13 = EDGE_LOOP ( 'NONE', ( #44 ) ) ;
#14 = FACE_OUTER_BOUND ( 'NONE', #51, .T. ) ;
#15 = CYLINDRICAL_SURFACE ( 'NONE', #101, 6.000000000000000900 ) ;
#16 = EDGE_LOOP ( 'NONE', ( #80 ) ) ;
#17 = EDGE_LOOP ( 'NONE', ( #19 ) ) ;
#18 = CONICAL_SURFACE ( 'NONE', #100, 5.500000000000504500, 0.7853981633972220200 ) ;
#19 = ORIENTED_EDGE ( 'NONE', *, *, #87, .F. ) ;
#20 = ORIENTED_EDGE ( 'NONE', *, *, #92, .F. ) ;
#21 = CLOSED_SHELL ( 'NONE', ( #8, #9, #113, #11, #10 ) ) ;
#22 = EDGE_LOOP ( 'NONE', ( #56 ) ) ;
#23 = ORIENTED_EDGE ( 'NONE', *, *, #86, .F. ) ;
#24 = FACE_OUTER_BOUND ( 'NONE', #70, .T. ) ;
#25 = CALENDAR_DATE ( 2016, 18, 3 ) ;
#26 = CIRCLE ( 'NONE', #83, 5.499999999997840000 ) ;
#27 = CIRCLE ( 'NONE', #98, 5.500000000000504500 ) ;
#28 = PERSON_AND_ORGANIZATION ( #1, #62 ) ;
#29 = APPROVAL_DATE_TIME ( #30, #106 ) ;
#30 = DATE_AND_TIME ( #33, #32 ) ;
#31 = CONICAL_SURFACE ( 'NONE', #96, 6.000000000000000900, 0.7853981633981099700 ) ;
#32 = LOCAL_TIME ( 9, 36, 2.000000000000000000, #35 ) ;
#33 = CALENDAR_DATE ( 2016, 18, 3 ) ;
#34 = APPROVAL_PERSON_ORGANIZATION ( #37, #106, #131 ) ;
#35 = COORDINATED_UNIVERSAL_TIME_OFFSET ( 2, 0, .AHEAD. ) ;
#36 = DATE_AND_TIME ( #38, #39 ) ;
#37 = PERSON_AND_ORGANIZATION ( #1, #62 ) ;
#38 = CALENDAR_DATE ( 2016, 18, 3 ) ;
#39 = LOCAL_TIME ( 9, 36, 2.000000000000000000, #40 ) ;
#40 = COORDINATED_UNIVERSAL_TIME_OFFSET ( 2, 0, .AHEAD. ) ;
#41 = PERSON_AND_ORGANIZATION ( #1, #62 ) ;
#42 = PERSON_AND_ORGANIZATION ( #1, #62 ) ;
#43 = PERSON_AND_ORGANIZATION ( #1, #62 ) ;
#44 = ORIENTED_EDGE ( 'NONE', *, *, #91, .F. ) ;
#45 = DATE_AND_TIME ( #25, #50 ) ;
#46 = CIRCLE ( 'NONE', #94, 6.000000000000000900 ) ;
#47 = ORIENTED_EDGE ( 'NONE', *, *, #87, .T. ) ;
#48 = COORDINATED_UNIVERSAL_TIME_OFFSET ( 2, 0, .AHEAD. ) ;
#49 = COORDINATED_UNIVERSAL_TIME_OFFSET ( 2, 0, .AHEAD. ) ;
#50 = LOCAL_TIME ( 9, 36, 2.000000000000000000, #49 ) ;
#51 = EDGE_LOOP ( 'NONE', ( #20 ) ) ;
#52 = EDGE_LOOP ( 'NONE', ( #23 ) ) ;
#53 = FACE_OUTER_BOUND ( 'NONE', #16, .T. ) ;
#54 = FACE_OUTER_BOUND ( 'NONE', #22, .T. ) ;
#55 = FACE_OUTER_BOUND ( 'NONE', #75, .T. ) ;
#56 = ORIENTED_EDGE ( 'NONE', *, *, #86, .T. ) ;
#57 = FACE_BOUND ( 'NONE', #17, .T. ) ;
#58 = FACE_BOUND ( 'NONE', #52, .T. ) ;
#59 = FACE_OUTER_BOUND ( 'NONE', #13, .T. ) ;
#60 = APPROVAL_PERSON_ORGANIZATION ( #74, #82, #174 ) ;
#61 =( GEOMETRIC_REPRESENTATION_CONTEXT ( 3 ) GLOBAL_UNCERTAINTY_ASSIGNED_CONTEXT ( ( #4 ) ) GLOBAL_UNIT_ASSIGNED_CONTEXT ( ( #125, #126, #127 ) ) REPRESENTATION_CONTEXT ( 'NONE', 'WORKASPACE' ) );
#62 = ORGANIZATION ( 'UNSPECIFIED', 'UNSPECIFIED', '' ) ;
#63 = SHAPE_DEFINITION_REPRESENTATION ( #7, #5 ) ;
#64 = PERSON_AND_ORGANIZATION ( #1, #62 ) ;
#65 = PERSON_AND_ORGANIZATION ( #1, #62 ) ;
#66 = APPROVAL_PERSON_ORGANIZATION ( #65, #85, #121 ) ;
#67 = COORDINATED_UNIVERSAL_TIME_OFFSET ( 2, 0, .AHEAD. ) ;
#68 = LOCAL_TIME ( 9, 36, 2.000000000000000000, #67 ) ;
#69 = CALENDAR_DATE ( 2016, 18, 3 ) ;
#70 = EDGE_LOOP ( 'NONE', ( #47 ) ) ;
#71 = DATE_AND_TIME ( #69, #68 ) ;
#72 = APPROVAL_DATE_TIME ( #71, #85 ) ;
#73 = ORIENTED_EDGE ( 'NONE', *, *, #92, .T. ) ;
#74 = PERSON_AND_ORGANIZATION ( #1, #62 ) ;
#75 = EDGE_LOOP ( 'NONE', ( #73 ) ) ;
#76 = LOCAL_TIME ( 9, 36, 2.000000000000000000, #48 ) ;
#77 = CALENDAR_DATE ( 2016, 18, 3 ) ;
#78 = DATE_AND_TIME ( #77, #76 ) ;
#79 = APPROVAL_DATE_TIME ( #78, #82 ) ;
#80 = ORIENTED_EDGE ( 'NONE', *, *, #91, .T. ) ;
#81 = CC_DESIGN_PERSON_AND_ORGANIZATION_ASSIGNMENT ( #64, #119, ( #2 ) ) ;
#82 = APPROVAL ( #171, 'UNSPECIFIED' ) ;
#83 = AXIS2_PLACEMENT_3D ( 'NONE', #158, #146, #148 ) ;
#84 = CC_DESIGN_PERSON_AND_ORGANIZATION_ASSIGNMENT ( #42, #155, ( #88 ) ) ;
#85 = APPROVAL ( #137, 'UNSPECIFIED' ) ;
#86 = EDGE_CURVE ( 'NONE', #134, #134, #26, .T. ) ;
#87 = EDGE_CURVE ( 'NONE', #133, #133, #27, .T. ) ;
#88 = PRODUCT_DEFINITION_FORMATION_WITH_SPECIFIED_SOURCE ( 'ANY', '', #2, .NOT_KNOWN. ) ;
#89 = CC_DESIGN_DATE_AND_TIME_ASSIGNMENT ( #45, #151, ( #90 ) ) ;
#90 = PRODUCT_DEFINITION ( 'UNKNOWN', '', #88, #6 ) ;
#91 = EDGE_CURVE ( 'NONE', #160, #160, #12, .T. ) ;
#92 = EDGE_CURVE ( 'NONE', #123, #123, #46, .T. ) ;
#93 = AXIS2_PLACEMENT_3D ( 'NONE', #156, #152, #143 ) ;
#94 = AXIS2_PLACEMENT_3D ( 'NONE', #138, #159, #139 ) ;
#95 = CC_DESIGN_PERSON_AND_ORGANIZATION_ASSIGNMENT ( #43, #144, ( #88 ) ) ;
#96 = AXIS2_PLACEMENT_3D ( 'NONE', #128, #165, #157 ) ;
#97 = AXIS2_PLACEMENT_3D ( 'NONE', #114, #145, #162 ) ;
#98 = AXIS2_PLACEMENT_3D ( 'NONE', #153, #130, #142 ) ;
#99 = AXIS2_PLACEMENT_3D ( 'NONE', #120, #150, #172 ) ;
#100 = AXIS2_PLACEMENT_3D ( 'NONE', #173, #149, #169 ) ;
#101 = AXIS2_PLACEMENT_3D ( 'NONE', #129, #141, #122 ) ;
#102 = PRODUCT_RELATED_PRODUCT_CATEGORY ( 'detail', '', ( #2 ) ) ;
#103 = CC_DESIGN_SECURITY_CLASSIFICATION ( #112, ( #88 ) ) ;
#104 = CC_DESIGN_APPROVAL ( #106, ( #112 ) ) ;
#105 = CC_DESIGN_APPROVAL ( #85, ( #90 ) ) ;
#106 = APPROVAL ( #175, 'UNSPECIFIED' ) ;
#107 = CC_DESIGN_DATE_AND_TIME_ASSIGNMENT ( #36, #147, ( #112 ) ) ;
#108 = CC_DESIGN_APPROVAL ( #82, ( #88 ) ) ;
#109 = CC_DESIGN_PERSON_AND_ORGANIZATION_ASSIGNMENT ( #28, #118, ( #90 ) ) ;
#110 = AXIS2_PLACEMENT_3D ( 'NONE', #163, #167, #140 ) ;
#111 = CC_DESIGN_PERSON_AND_ORGANIZATION_ASSIGNMENT ( #41, #164, ( #112 ) ) ;
#112 = SECURITY_CLASSIFICATION ( '', '', #154 ) ;
#113 = ADVANCED_FACE ( 'NONE', ( #24 ), #136, .T. ) ;
#114 = CARTESIAN_POINT ( 'NONE',  ( 3000.000000000000000, 0.0000000000000000000, 0.0000000000000000000 ) ) ;
#115 = APPLICATION_CONTEXT ( 'configuration controlled 3d designs of mechanical parts and assemblies' ) ;
#116 = CARTESIAN_POINT ( 'NONE',  ( -3000.000000000000000, 0.0000000000000000000, -5.499999999997840000 ) ) ;
#117 = CARTESIAN_POINT ( 'NONE',  ( 3000.000000000000000, 0.0000000000000000000, -5.500000000000504500 ) ) ;
#118 = PERSON_AND_ORGANIZATION_ROLE ( 'creator' ) ;
#119 = PERSON_AND_ORGANIZATION_ROLE ( 'design_owner' ) ;
#120 = CARTESIAN_POINT ( 'NONE',  ( 0.0000000000000000000, 0.0000000000000000000, 0.0000000000000000000 ) ) ;
#121 = APPROVAL_ROLE ( '' ) ;
#122 = DIRECTION ( 'NONE',  ( 0.0000000000000000000, 0.0000000000000000000, -1.000000000000000000 ) ) ;
#123 = VERTEX_POINT ( 'NONE', #124 ) ;
#124 = CARTESIAN_POINT ( 'NONE',  ( -2999.499999999998600, 0.0000000000000000000, -6.000000000000000900 ) ) ;
#125 =( LENGTH_UNIT ( ) NAMED_UNIT ( * ) SI_UNIT ( .MILLI., .METRE. ) );
#126 =( NAMED_UNIT ( * ) PLANE_ANGLE_UNIT ( ) SI_UNIT ( $, .RADIAN. ) );
#127 =( NAMED_UNIT ( * ) SI_UNIT ( $, .STERADIAN. ) SOLID_ANGLE_UNIT ( ) );
#128 = CARTESIAN_POINT ( 'NONE',  ( -2999.499999999998600, 0.0000000000000000000, 0.0000000000000000000 ) ) ;
#129 = CARTESIAN_POINT ( 'NONE',  ( -3000.000000000000000, 0.0000000000000000000, 0.0000000000000000000 ) ) ;
#130 = DIRECTION ( 'NONE',  ( 1.000000000000000000, 0.0000000000000000000, 0.0000000000000000000 ) ) ;
#131 = APPROVAL_ROLE ( '' ) ;
#132 = APPLICATION_CONTEXT ( 'configuration controlled 3d designs of mechanical parts and assemblies' ) ;
#133 = VERTEX_POINT ( 'NONE', #117 ) ;
#134 = VERTEX_POINT ( 'NONE', #116 ) ;
#135 = APPLICATION_PROTOCOL_DEFINITION ( 'international standard', 'config_control_design', 1994, #132 ) ;
#136 = PLANE ( 'NONE',  #97 ) ;
#137 = APPROVAL_STATUS ( 'not_yet_approved' ) ;
#138 = CARTESIAN_POINT ( 'NONE',  ( -2999.499999999998600, 0.0000000000000000000, 0.0000000000000000000 ) ) ;
#139 = DIRECTION ( 'NONE',  ( 0.0000000000000000000, 0.0000000000000000000, -1.000000000000000000 ) ) ;
#140 = DIRECTION ( 'NONE',  ( 0.0000000000000000000, 0.0000000000000000000, -1.000000000000000000 ) ) ;
#141 = DIRECTION ( 'NONE',  ( 1.000000000000000000, 0.0000000000000000000, 0.0000000000000000000 ) ) ;
#142 = DIRECTION ( 'NONE',  ( 0.0000000000000000000, 0.0000000000000000000, -1.000000000000000000 ) ) ;
#143 = DIRECTION ( 'NONE',  ( 0.0000000000000000000, 0.0000000000000000000, -1.000000000000000000 ) ) ;
#144 = PERSON_AND_ORGANIZATION_ROLE ( 'creator' ) ;
#145 = DIRECTION ( 'NONE',  ( 1.000000000000000000, 0.0000000000000000000, 0.0000000000000000000 ) ) ;
#146 = DIRECTION ( 'NONE',  ( -1.000000000000000000, -0.0000000000000000000, -0.0000000000000000000 ) ) ;
#147 = DATE_TIME_ROLE ( 'classification_date' ) ;
#148 = DIRECTION ( 'NONE',  ( 0.0000000000000000000, 0.0000000000000000000, -1.000000000000000000 ) ) ;
#149 = DIRECTION ( 'NONE',  ( -1.000000000000000000, 0.0000000000000000000, 0.0000000000000000000 ) ) ;
#150 = DIRECTION ( 'NONE',  ( 0.0000000000000000000, 0.0000000000000000000, 1.000000000000000000 ) ) ;
#151 = DATE_TIME_ROLE ( 'creation_date' ) ;
#152 = DIRECTION ( 'NONE',  ( -1.000000000000000000, 0.0000000000000000000, 0.0000000000000000000 ) ) ;
#153 = CARTESIAN_POINT ( 'NONE',  ( 3000.000000000000000, 0.0000000000000000000, 0.0000000000000000000 ) ) ;
#154 = SECURITY_CLASSIFICATION_LEVEL ( 'unclassified' ) ;
#155 = PERSON_AND_ORGANIZATION_ROLE ( 'design_supplier' ) ;
#156 = CARTESIAN_POINT ( 'NONE',  ( 2999.500000000000500, 0.0000000000000000000, 0.0000000000000000000 ) ) ;
#157 = DIRECTION ( 'NONE',  ( 0.0000000000000000000, 0.0000000000000000000, -1.000000000000000000 ) ) ;
#158 = CARTESIAN_POINT ( 'NONE',  ( -3000.000000000000000, 0.0000000000000000000, 0.0000000000000000000 ) ) ;
#159 = DIRECTION ( 'NONE',  ( 1.000000000000000000, -0.0000000000000000000, -0.0000000000000000000 ) ) ;
#160 = VERTEX_POINT ( 'NONE', #168 ) ;
#161 = APPLICATION_PROTOCOL_DEFINITION ( 'international standard', 'config_control_design', 1994, #115 ) ;
#162 = DIRECTION ( 'NONE',  ( 0.0000000000000000000, 0.0000000000000000000, -1.000000000000000000 ) ) ;
#163 = CARTESIAN_POINT ( 'NONE',  ( -3000.000000000000000, 0.0000000000000000000, 0.0000000000000000000 ) ) ;
#164 = PERSON_AND_ORGANIZATION_ROLE ( 'classification_officer' ) ;
#165 = DIRECTION ( 'NONE',  ( 1.000000000000000000, -0.0000000000000000000, -0.0000000000000000000 ) ) ;
#166 = PLANE ( 'NONE',  #110 ) ;
#167 = DIRECTION ( 'NONE',  ( 1.000000000000000000, 0.0000000000000000000, 0.0000000000000000000 ) ) ;
#168 = CARTESIAN_POINT ( 'NONE',  ( 2999.500000000000500, 0.0000000000000000000, -6.000000000000000900 ) ) ;
#169 = DIRECTION ( 'NONE',  ( 0.0000000000000000000, 0.0000000000000000000, 1.000000000000000000 ) ) ;
#170 = MECHANICAL_CONTEXT ( 'NONE', #132, 'mechanical' ) ;
#171 = APPROVAL_STATUS ( 'not_yet_approved' ) ;
#172 = DIRECTION ( 'NONE',  ( 1.000000000000000000, 0.0000000000000000000, 0.0000000000000000000 ) ) ;
#173 = CARTESIAN_POINT ( 'NONE',  ( 3000.000000000000000, 0.0000000000000000000, 0.0000000000000000000 ) ) ;
#174 = APPROVAL_ROLE ( '' ) ;
#175 = APPROVAL_STATUS ( 'not_yet_approved' ) ;
ENDSEC;
END-ISO-10303-21;
