ISO-10303-21;
HEADER;
FILE_DESCRIPTION (( 'STEP AP203' ),
    '1' );
FILE_NAME ('SF10.STEP',
    '2016-03-18T07:35:21',
    ( '' ),
    ( '' ),
    'SwSTEP 2.0',
    'SolidWorks 2010',
    '' );
FILE_SCHEMA (( 'CONFIG_CONTROL_DESIGN' ));
ENDSEC;

DATA;
#1 = PRODUCT ( 'SF10', 'SF10', '', ( #164 ) ) ;
#2 = PERSON ( 'UNSPECIFIED', 'UNSPECIFIED', 'UNSPECIFIED', ('UNSPECIFIED'), ('UNSPECIFIED'), ('UNSPECIFIED') ) ;
#3 = ADVANCED_BREP_SHAPE_REPRESENTATION ( 'SF10', ( #5, #27 ), #96 ) ;
#4 = UNCERTAINTY_MEASURE_WITH_UNIT (LENGTH_MEASURE( 1.000000000000000100E-005 ), #118, 'distance_accuracy_value', 'NONE');
#5 = MANIFOLD_SOLID_BREP ( 'Chamfer1', #85 ) ;
#6 = DESIGN_CONTEXT ( 'detailed design', #163, 'design' ) ;
#7 = PRODUCT_DEFINITION_SHAPE ( 'NONE', 'NONE',  #29 ) ;
#8 = ADVANCED_FACE ( 'NONE', ( #104, #109 ), #105, .T. ) ;
#9 = ADVANCED_FACE ( 'NONE', ( #108 ), #125, .T. ) ;
#10 = ADVANCED_FACE ( 'NONE', ( #43, #111 ), #50, .T. ) ;
#11 = ADVANCED_FACE ( 'NONE', ( #46 ), #138, .F. ) ;
#12 = ADVANCED_FACE ( 'NONE', ( #102, #100 ), #47, .T. ) ;
#13 = CC_DESIGN_DATE_AND_TIME_ASSIGNMENT ( #64, #171, ( #39 ) ) ;
#14 = AXIS2_PLACEMENT_3D ( 'NONE', #139, #137, #173 ) ;
#15 = AXIS2_PLACEMENT_3D ( 'NONE', #129, #122, #121 ) ;
#16 = AXIS2_PLACEMENT_3D ( 'NONE', #170, #132, #131 ) ;
#17 = EDGE_CURVE ( 'NONE', #159, #159, #52, .T. ) ;
#18 = EDGE_CURVE ( 'NONE', #158, #158, #53, .T. ) ;
#19 = EDGE_CURVE ( 'NONE', #161, #161, #103, .T. ) ;
#20 = EDGE_CURVE ( 'NONE', #144, #144, #101, .T. ) ;
#21 = AXIS2_PLACEMENT_3D ( 'NONE', #128, #141, #165 ) ;
#22 = AXIS2_PLACEMENT_3D ( 'NONE', #169, #149, #142 ) ;
#23 = AXIS2_PLACEMENT_3D ( 'NONE', #145, #146, #147 ) ;
#24 = AXIS2_PLACEMENT_3D ( 'NONE', #115, #119, #140 ) ;
#25 = AXIS2_PLACEMENT_3D ( 'NONE', #126, #152, #123 ) ;
#26 = AXIS2_PLACEMENT_3D ( 'NONE', #120, #135, #116 ) ;
#27 = AXIS2_PLACEMENT_3D ( 'NONE', #154, #166, #155 ) ;
#28 = CC_DESIGN_PERSON_AND_ORGANIZATION_ASSIGNMENT ( #93, #162, ( #1 ) ) ;
#29 = PRODUCT_DEFINITION ( 'UNKNOWN', '', #34, #6 ) ;
#30 = APPROVAL ( #168, 'UNSPECIFIED' ) ;
#31 = CC_DESIGN_APPROVAL ( #30, ( #29 ) ) ;
#32 = CC_DESIGN_PERSON_AND_ORGANIZATION_ASSIGNMENT ( #84, #133, ( #29 ) ) ;
#33 = CC_DESIGN_DATE_AND_TIME_ASSIGNMENT ( #78, #150, ( #29 ) ) ;
#34 = PRODUCT_DEFINITION_FORMATION_WITH_SPECIFIED_SOURCE ( 'ANY', '', #1, .NOT_KNOWN. ) ;
#35 = APPROVAL ( #130, 'UNSPECIFIED' ) ;
#36 = CC_DESIGN_APPROVAL ( #35, ( #34 ) ) ;
#37 = CC_DESIGN_PERSON_AND_ORGANIZATION_ASSIGNMENT ( #70, #175, ( #34 ) ) ;
#38 = CC_DESIGN_PERSON_AND_ORGANIZATION_ASSIGNMENT ( #69, #157, ( #34 ) ) ;
#39 = SECURITY_CLASSIFICATION ( '', '', #114 ) ;
#40 = APPROVAL ( #148, 'UNSPECIFIED' ) ;
#41 = CC_DESIGN_PERSON_AND_ORGANIZATION_ASSIGNMENT ( #68, #174, ( #39 ) ) ;
#42 = CC_DESIGN_APPROVAL ( #40, ( #39 ) ) ;
#43 = FACE_BOUND ( 'NONE', #97, .T. ) ;
#44 = EDGE_LOOP ( 'NONE', ( #55 ) ) ;
#45 = ORIENTED_EDGE ( 'NONE', *, *, #17, .T. ) ;
#46 = FACE_OUTER_BOUND ( 'NONE', #107, .T. ) ;
#47 = CYLINDRICAL_SURFACE ( 'NONE', #21, 5.000000000000000000 ) ;
#48 = EDGE_LOOP ( 'NONE', ( #45 ) ) ;
#49 = ORIENTED_EDGE ( 'NONE', *, *, #20, .F. ) ;
#50 = CONICAL_SURFACE ( 'NONE', #23, 5.000000000000000000, 0.7853981633984431500 ) ;
#51 = EDGE_LOOP ( 'NONE', ( #83 ) ) ;
#52 = CIRCLE ( 'NONE', #15, 4.500000000000170500 ) ;
#53 = CIRCLE ( 'NONE', #24, 4.500000000001058700 ) ;
#54 = ORIENTED_EDGE ( 'NONE', *, *, #19, .F. ) ;
#55 = ORIENTED_EDGE ( 'NONE', *, *, #19, .T. ) ;
#56 = APPROVAL_DATE_TIME ( #58, #40 ) ;
#57 = EDGE_LOOP ( 'NONE', ( #54 ) ) ;
#58 = DATE_AND_TIME ( #59, #60 ) ;
#59 = CALENDAR_DATE ( 2016, 18, 3 ) ;
#60 = LOCAL_TIME ( 9, 35, 21.00000000000000000, #61 ) ;
#61 = COORDINATED_UNIVERSAL_TIME_OFFSET ( 2, 0, .AHEAD. ) ;
#62 = APPROVAL_PERSON_ORGANIZATION ( #63, #40, #172 ) ;
#63 = PERSON_AND_ORGANIZATION ( #2, #94 ) ;
#64 = DATE_AND_TIME ( #65, #66 ) ;
#65 = CALENDAR_DATE ( 2016, 18, 3 ) ;
#66 = LOCAL_TIME ( 9, 35, 21.00000000000000000, #67 ) ;
#67 = COORDINATED_UNIVERSAL_TIME_OFFSET ( 2, 0, .AHEAD. ) ;
#68 = PERSON_AND_ORGANIZATION ( #2, #94 ) ;
#69 = PERSON_AND_ORGANIZATION ( #2, #94 ) ;
#70 = PERSON_AND_ORGANIZATION ( #2, #94 ) ;
#71 = APPROVAL_DATE_TIME ( #72, #35 ) ;
#72 = DATE_AND_TIME ( #73, #74 ) ;
#73 = CALENDAR_DATE ( 2016, 18, 3 ) ;
#74 = LOCAL_TIME ( 9, 35, 21.00000000000000000, #75 ) ;
#75 = COORDINATED_UNIVERSAL_TIME_OFFSET ( 2, 0, .AHEAD. ) ;
#76 = APPROVAL_PERSON_ORGANIZATION ( #77, #35, #151 ) ;
#77 = PERSON_AND_ORGANIZATION ( #2, #94 ) ;
#78 = DATE_AND_TIME ( #79, #81 ) ;
#79 = CALENDAR_DATE ( 2016, 18, 3 ) ;
#80 = EDGE_LOOP ( 'NONE', ( #49 ) ) ;
#81 = LOCAL_TIME ( 9, 35, 21.00000000000000000, #82 ) ;
#82 = COORDINATED_UNIVERSAL_TIME_OFFSET ( 2, 0, .AHEAD. ) ;
#83 = ORIENTED_EDGE ( 'NONE', *, *, #17, .F. ) ;
#84 = PERSON_AND_ORGANIZATION ( #2, #94 ) ;
#85 = CLOSED_SHELL ( 'NONE', ( #12, #11, #9, #10, #8 ) ) ;
#86 = APPROVAL_DATE_TIME ( #87, #30 ) ;
#87 = DATE_AND_TIME ( #88, #89 ) ;
#88 = CALENDAR_DATE ( 2016, 18, 3 ) ;
#89 = LOCAL_TIME ( 9, 35, 21.00000000000000000, #90 ) ;
#90 = COORDINATED_UNIVERSAL_TIME_OFFSET ( 2, 0, .AHEAD. ) ;
#91 = APPROVAL_PERSON_ORGANIZATION ( #92, #30, #143 ) ;
#92 = PERSON_AND_ORGANIZATION ( #2, #94 ) ;
#93 = PERSON_AND_ORGANIZATION ( #2, #94 ) ;
#94 = ORGANIZATION ( 'UNSPECIFIED', 'UNSPECIFIED', '' ) ;
#95 = SHAPE_DEFINITION_REPRESENTATION ( #7, #3 ) ;
#96 =( GEOMETRIC_REPRESENTATION_CONTEXT ( 3 ) GLOBAL_UNCERTAINTY_ASSIGNED_CONTEXT ( ( #4 ) ) GLOBAL_UNIT_ASSIGNED_CONTEXT ( ( #118, #156, #153 ) ) REPRESENTATION_CONTEXT ( 'NONE', 'WORKASPACE' ) );
#97 = EDGE_LOOP ( 'NONE', ( #110 ) ) ;
#98 = ORIENTED_EDGE ( 'NONE', *, *, #18, .T. ) ;
#99 = ORIENTED_EDGE ( 'NONE', *, *, #20, .T. ) ;
#100 = FACE_OUTER_BOUND ( 'NONE', #106, .T. ) ;
#101 = CIRCLE ( 'NONE', #26, 5.000000000000000000 ) ;
#102 = FACE_OUTER_BOUND ( 'NONE', #44, .T. ) ;
#103 = CIRCLE ( 'NONE', #25, 5.000000000000000000 ) ;
#104 = FACE_OUTER_BOUND ( 'NONE', #80, .T. ) ;
#105 = CONICAL_SURFACE ( 'NONE', #22, 4.500000000000170500, 0.7853981633975549700 ) ;
#106 = EDGE_LOOP ( 'NONE', ( #99 ) ) ;
#107 = EDGE_LOOP ( 'NONE', ( #98 ) ) ;
#108 = FACE_OUTER_BOUND ( 'NONE', #48, .T. ) ;
#109 = FACE_BOUND ( 'NONE', #51, .T. ) ;
#110 = ORIENTED_EDGE ( 'NONE', *, *, #18, .F. ) ;
#111 = FACE_OUTER_BOUND ( 'NONE', #57, .T. ) ;
#112 = CC_DESIGN_SECURITY_CLASSIFICATION ( #39, ( #34 ) ) ;
#113 = PRODUCT_RELATED_PRODUCT_CATEGORY ( 'detail', '', ( #1 ) ) ;
#114 = SECURITY_CLASSIFICATION_LEVEL ( 'unclassified' ) ;
#115 = CARTESIAN_POINT ( 'NONE',  ( -3000.000000000000000, 0.0000000000000000000, 0.0000000000000000000 ) ) ;
#116 = DIRECTION ( 'NONE',  ( 0.0000000000000000000, 0.0000000000000000000, -1.000000000000000000 ) ) ;
#117 = APPLICATION_CONTEXT ( 'configuration controlled 3d designs of mechanical parts and assemblies' ) ;
#118 =( LENGTH_UNIT ( ) NAMED_UNIT ( * ) SI_UNIT ( .MILLI., .METRE. ) );
#119 = DIRECTION ( 'NONE',  ( -1.000000000000000000, -0.0000000000000000000, -0.0000000000000000000 ) ) ;
#120 = CARTESIAN_POINT ( 'NONE',  ( 2999.500000000000500, 0.0000000000000000000, 0.0000000000000000000 ) ) ;
#121 = DIRECTION ( 'NONE',  ( 0.0000000000000000000, 0.0000000000000000000, -1.000000000000000000 ) ) ;
#122 = DIRECTION ( 'NONE',  ( 1.000000000000000000, 0.0000000000000000000, 0.0000000000000000000 ) ) ;
#123 = DIRECTION ( 'NONE',  ( 0.0000000000000000000, 0.0000000000000000000, -1.000000000000000000 ) ) ;
#124 = APPLICATION_PROTOCOL_DEFINITION ( 'international standard', 'config_control_design', 1994, #163 ) ;
#125 = PLANE ( 'NONE',  #14 ) ;
#126 = CARTESIAN_POINT ( 'NONE',  ( -2999.500000000002300, 0.0000000000000000000, 0.0000000000000000000 ) ) ;
#127 = APPLICATION_PROTOCOL_DEFINITION ( 'international standard', 'config_control_design', 1994, #117 ) ;
#128 = CARTESIAN_POINT ( 'NONE',  ( -3000.000000000000000, 0.0000000000000000000, 0.0000000000000000000 ) ) ;
#129 = CARTESIAN_POINT ( 'NONE',  ( 3000.000000000000000, 0.0000000000000000000, 0.0000000000000000000 ) ) ;
#130 = APPROVAL_STATUS ( 'not_yet_approved' ) ;
#131 = DIRECTION ( 'NONE',  ( 0.0000000000000000000, 0.0000000000000000000, -1.000000000000000000 ) ) ;
#132 = DIRECTION ( 'NONE',  ( 1.000000000000000000, 0.0000000000000000000, 0.0000000000000000000 ) ) ;
#133 = PERSON_AND_ORGANIZATION_ROLE ( 'creator' ) ;
#134 = CARTESIAN_POINT ( 'NONE',  ( -2999.500000000002300, 0.0000000000000000000, -5.000000000000000000 ) ) ;
#135 = DIRECTION ( 'NONE',  ( -1.000000000000000000, 0.0000000000000000000, 0.0000000000000000000 ) ) ;
#136 = CARTESIAN_POINT ( 'NONE',  ( -3000.000000000000000, 0.0000000000000000000, -4.500000000001058700 ) ) ;
#137 = DIRECTION ( 'NONE',  ( 1.000000000000000000, 0.0000000000000000000, 0.0000000000000000000 ) ) ;
#138 = PLANE ( 'NONE',  #16 ) ;
#139 = CARTESIAN_POINT ( 'NONE',  ( 3000.000000000000000, 0.0000000000000000000, 0.0000000000000000000 ) ) ;
#140 = DIRECTION ( 'NONE',  ( 0.0000000000000000000, 0.0000000000000000000, -1.000000000000000000 ) ) ;
#141 = DIRECTION ( 'NONE',  ( 1.000000000000000000, 0.0000000000000000000, 0.0000000000000000000 ) ) ;
#142 = DIRECTION ( 'NONE',  ( 0.0000000000000000000, 0.0000000000000000000, 1.000000000000000000 ) ) ;
#143 = APPROVAL_ROLE ( '' ) ;
#144 = VERTEX_POINT ( 'NONE', #167 ) ;
#145 = CARTESIAN_POINT ( 'NONE',  ( -2999.500000000002300, 0.0000000000000000000, 0.0000000000000000000 ) ) ;
#146 = DIRECTION ( 'NONE',  ( 1.000000000000000000, -0.0000000000000000000, -0.0000000000000000000 ) ) ;
#147 = DIRECTION ( 'NONE',  ( 0.0000000000000000000, 0.0000000000000000000, -1.000000000000000000 ) ) ;
#148 = APPROVAL_STATUS ( 'not_yet_approved' ) ;
#149 = DIRECTION ( 'NONE',  ( -1.000000000000000000, 0.0000000000000000000, 0.0000000000000000000 ) ) ;
#150 = DATE_TIME_ROLE ( 'creation_date' ) ;
#151 = APPROVAL_ROLE ( '' ) ;
#152 = DIRECTION ( 'NONE',  ( 1.000000000000000000, -0.0000000000000000000, -0.0000000000000000000 ) ) ;
#153 =( NAMED_UNIT ( * ) SI_UNIT ( $, .STERADIAN. ) SOLID_ANGLE_UNIT ( ) );
#154 = CARTESIAN_POINT ( 'NONE',  ( 0.0000000000000000000, 0.0000000000000000000, 0.0000000000000000000 ) ) ;
#155 = DIRECTION ( 'NONE',  ( 1.000000000000000000, 0.0000000000000000000, 0.0000000000000000000 ) ) ;
#156 =( NAMED_UNIT ( * ) PLANE_ANGLE_UNIT ( ) SI_UNIT ( $, .RADIAN. ) );
#157 = PERSON_AND_ORGANIZATION_ROLE ( 'design_supplier' ) ;
#158 = VERTEX_POINT ( 'NONE', #136 ) ;
#159 = VERTEX_POINT ( 'NONE', #160 ) ;
#160 = CARTESIAN_POINT ( 'NONE',  ( 3000.000000000000000, 0.0000000000000000000, -4.500000000000170500 ) ) ;
#161 = VERTEX_POINT ( 'NONE', #134 ) ;
#162 = PERSON_AND_ORGANIZATION_ROLE ( 'design_owner' ) ;
#163 = APPLICATION_CONTEXT ( 'configuration controlled 3d designs of mechanical parts and assemblies' ) ;
#164 = MECHANICAL_CONTEXT ( 'NONE', #117, 'mechanical' ) ;
#165 = DIRECTION ( 'NONE',  ( 0.0000000000000000000, 0.0000000000000000000, -1.000000000000000000 ) ) ;
#166 = DIRECTION ( 'NONE',  ( 0.0000000000000000000, 0.0000000000000000000, 1.000000000000000000 ) ) ;
#167 = CARTESIAN_POINT ( 'NONE',  ( 2999.500000000000500, 0.0000000000000000000, -5.000000000000000000 ) ) ;
#168 = APPROVAL_STATUS ( 'not_yet_approved' ) ;
#169 = CARTESIAN_POINT ( 'NONE',  ( 3000.000000000000000, 0.0000000000000000000, 0.0000000000000000000 ) ) ;
#170 = CARTESIAN_POINT ( 'NONE',  ( -3000.000000000000000, 0.0000000000000000000, 0.0000000000000000000 ) ) ;
#171 = DATE_TIME_ROLE ( 'classification_date' ) ;
#172 = APPROVAL_ROLE ( '' ) ;
#173 = DIRECTION ( 'NONE',  ( 0.0000000000000000000, 0.0000000000000000000, -1.000000000000000000 ) ) ;
#174 = PERSON_AND_ORGANIZATION_ROLE ( 'classification_officer' ) ;
#175 = PERSON_AND_ORGANIZATION_ROLE ( 'creator' ) ;
ENDSEC;
END-ISO-10303-21;
