ISO-10303-21;
HEADER;
FILE_DESCRIPTION (( 'STEP AP203' ),
    '1' );
FILE_NAME ('SF8.STEP',
    '2016-03-18T07:34:45',
    ( '' ),
    ( '' ),
    'SwSTEP 2.0',
    'SolidWorks 2010',
    '' );
FILE_SCHEMA (( 'CONFIG_CONTROL_DESIGN' ));
ENDSEC;

DATA;
#1 = PRODUCT ( 'SF8', 'SF8', '', ( #158 ) ) ;
#2 = PERSON ( 'UNSPECIFIED', 'UNSPECIFIED', 'UNSPECIFIED', ('UNSPECIFIED'), ('UNSPECIFIED'), ('UNSPECIFIED') ) ;
#3 = UNCERTAINTY_MEASURE_WITH_UNIT (LENGTH_MEASURE( 1.000000000000000100E-005 ), #151, 'distance_accuracy_value', 'NONE');
#4 = ADVANCED_BREP_SHAPE_REPRESENTATION ( 'SF8', ( #5, #95 ), #78 ) ;
#5 = MANIFOLD_SOLID_BREP ( 'Chamfer1', #21 ) ;
#6 = DESIGN_CONTEXT ( 'detailed design', #160, 'design' ) ;
#7 = PRODUCT_DEFINITION_SHAPE ( 'NONE', 'NONE',  #101 ) ;
#8 = ADVANCED_FACE ( 'NONE', ( #49 ), #132, .T. ) ;
#9 = ADVANCED_FACE ( 'NONE', ( #50, #43 ), #44, .T. ) ;
#10 = ADVANCED_FACE ( 'NONE', ( #48, #40 ), #47, .T. ) ;
#11 = ADVANCED_FACE ( 'NONE', ( #42, #31 ), #33, .T. ) ;
#12 = ADVANCED_FACE ( 'NONE', ( #32 ), #131, .F. ) ;
#13 = CC_DESIGN_PERSON_AND_ORGANIZATION_ASSIGNMENT ( #62, #169, ( #110 ) ) ;
#14 = CC_DESIGN_PERSON_AND_ORGANIZATION_ASSIGNMENT ( #64, #171, ( #20 ) ) ;
#15 = CC_DESIGN_DATE_AND_TIME_ASSIGNMENT ( #68, #172, ( #20 ) ) ;
#16 = APPROVAL ( #173, 'UNSPECIFIED' ) ;
#17 = CC_DESIGN_APPROVAL ( #16, ( #20 ) ) ;
#18 = CC_DESIGN_SECURITY_CLASSIFICATION ( #20, ( #110 ) ) ;
#19 = PRODUCT_RELATED_PRODUCT_CATEGORY ( 'detail', '', ( #1 ) ) ;
#20 = SECURITY_CLASSIFICATION ( '', '', #170 ) ;
#21 = CLOSED_SHELL ( 'NONE', ( #10, #12, #8, #9, #11 ) ) ;
#22 = ORIENTED_EDGE ( 'NONE', *, *, #91, .F. ) ;
#23 = ORIENTED_EDGE ( 'NONE', *, *, #93, .T. ) ;
#24 = ORIENTED_EDGE ( 'NONE', *, *, #106, .F. ) ;
#25 = EDGE_LOOP ( 'NONE', ( #30 ) ) ;
#26 = ORIENTED_EDGE ( 'NONE', *, *, #96, .F. ) ;
#27 = EDGE_LOOP ( 'NONE', ( #23 ) ) ;
#28 = ORIENTED_EDGE ( 'NONE', *, *, #93, .F. ) ;
#29 = EDGE_LOOP ( 'NONE', ( #26 ) ) ;
#30 = ORIENTED_EDGE ( 'NONE', *, *, #106, .T. ) ;
#31 = FACE_BOUND ( 'NONE', #54, .T. ) ;
#32 = FACE_OUTER_BOUND ( 'NONE', #39, .T. ) ;
#33 = CONICAL_SURFACE ( 'NONE', #107, 3.499999999998948400, 0.7853981633978889300 ) ;
#34 = PERSON_AND_ORGANIZATION ( #2, #36 ) ;
#35 = SHAPE_DEFINITION_REPRESENTATION ( #7, #4 ) ;
#36 = ORGANIZATION ( 'UNSPECIFIED', 'UNSPECIFIED', '' ) ;
#37 = PERSON_AND_ORGANIZATION ( #2, #36 ) ;
#38 = APPROVAL_DATE_TIME ( #79, #98 ) ;
#39 = EDGE_LOOP ( 'NONE', ( #58 ) ) ;
#40 = FACE_OUTER_BOUND ( 'NONE', #27, .T. ) ;
#41 = CALENDAR_DATE ( 2016, 18, 3 ) ;
#42 = FACE_OUTER_BOUND ( 'NONE', #52, .T. ) ;
#43 = FACE_OUTER_BOUND ( 'NONE', #53, .T. ) ;
#44 = CONICAL_SURFACE ( 'NONE', #104, 4.000000000000000000, 0.7853981633965567700 ) ;
#45 = ORIENTED_EDGE ( 'NONE', *, *, #91, .T. ) ;
#46 = CIRCLE ( 'NONE', #99, 4.000000000000000000 ) ;
#47 = CYLINDRICAL_SURFACE ( 'NONE', #100, 4.000000000000000000 ) ;
#48 = FACE_OUTER_BOUND ( 'NONE', #51, .T. ) ;
#49 = FACE_OUTER_BOUND ( 'NONE', #25, .T. ) ;
#50 = FACE_BOUND ( 'NONE', #29, .T. ) ;
#51 = EDGE_LOOP ( 'NONE', ( #45 ) ) ;
#52 = EDGE_LOOP ( 'NONE', ( #28 ) ) ;
#53 = EDGE_LOOP ( 'NONE', ( #22 ) ) ;
#54 = EDGE_LOOP ( 'NONE', ( #24 ) ) ;
#55 = CIRCLE ( 'NONE', #90, 4.000000000000000000 ) ;
#56 = CIRCLE ( 'NONE', #103, 3.500000000000724800 ) ;
#57 = CIRCLE ( 'NONE', #111, 3.499999999998948400 ) ;
#58 = ORIENTED_EDGE ( 'NONE', *, *, #96, .T. ) ;
#59 = DATE_AND_TIME ( #89, #88 ) ;
#60 = APPROVAL_DATE_TIME ( #59, #112 ) ;
#61 = PERSON_AND_ORGANIZATION ( #2, #36 ) ;
#62 = PERSON_AND_ORGANIZATION ( #2, #36 ) ;
#63 = COORDINATED_UNIVERSAL_TIME_OFFSET ( 2, 0, .AHEAD. ) ;
#64 = PERSON_AND_ORGANIZATION ( #2, #36 ) ;
#65 = COORDINATED_UNIVERSAL_TIME_OFFSET ( 2, 0, .AHEAD. ) ;
#66 = LOCAL_TIME ( 9, 34, 45.00000000000000000, #65 ) ;
#67 = CALENDAR_DATE ( 2016, 18, 3 ) ;
#68 = DATE_AND_TIME ( #67, #66 ) ;
#69 = PERSON_AND_ORGANIZATION ( #2, #36 ) ;
#70 = APPROVAL_PERSON_ORGANIZATION ( #69, #16, #174 ) ;
#71 = COORDINATED_UNIVERSAL_TIME_OFFSET ( 2, 0, .AHEAD. ) ;
#72 = LOCAL_TIME ( 9, 34, 45.00000000000000000, #71 ) ;
#73 = APPROVAL_PERSON_ORGANIZATION ( #37, #98, #163 ) ;
#74 = CALENDAR_DATE ( 2016, 18, 3 ) ;
#75 = DATE_AND_TIME ( #74, #72 ) ;
#76 = APPROVAL_DATE_TIME ( #75, #16 ) ;
#77 = LOCAL_TIME ( 9, 34, 45.00000000000000000, #63 ) ;
#78 =( GEOMETRIC_REPRESENTATION_CONTEXT ( 3 ) GLOBAL_UNCERTAINTY_ASSIGNED_CONTEXT ( ( #3 ) ) GLOBAL_UNIT_ASSIGNED_CONTEXT ( ( #151, #152, #153 ) ) REPRESENTATION_CONTEXT ( 'NONE', 'WORKASPACE' ) );
#79 = DATE_AND_TIME ( #41, #77 ) ;
#80 = PERSON_AND_ORGANIZATION ( #2, #36 ) ;
#81 = COORDINATED_UNIVERSAL_TIME_OFFSET ( 2, 0, .AHEAD. ) ;
#82 = LOCAL_TIME ( 9, 34, 45.00000000000000000, #81 ) ;
#83 = CALENDAR_DATE ( 2016, 18, 3 ) ;
#84 = DATE_AND_TIME ( #83, #82 ) ;
#85 = PERSON_AND_ORGANIZATION ( #2, #36 ) ;
#86 = APPROVAL_PERSON_ORGANIZATION ( #85, #112, #167 ) ;
#87 = COORDINATED_UNIVERSAL_TIME_OFFSET ( 2, 0, .AHEAD. ) ;
#88 = LOCAL_TIME ( 9, 34, 45.00000000000000000, #87 ) ;
#89 = CALENDAR_DATE ( 2016, 18, 3 ) ;
#90 = AXIS2_PLACEMENT_3D ( 'NONE', #119, #123, #137 ) ;
#91 = EDGE_CURVE ( 'NONE', #141, #141, #46, .T. ) ;
#92 = CC_DESIGN_PERSON_AND_ORGANIZATION_ASSIGNMENT ( #80, #164, ( #101 ) ) ;
#93 = EDGE_CURVE ( 'NONE', #138, #138, #55, .T. ) ;
#94 = CC_DESIGN_APPROVAL ( #98, ( #101 ) ) ;
#95 = AXIS2_PLACEMENT_3D ( 'NONE', #154, #142, #155 ) ;
#96 = EDGE_CURVE ( 'NONE', #147, #147, #56, .T. ) ;
#97 = CC_DESIGN_PERSON_AND_ORGANIZATION_ASSIGNMENT ( #34, #159, ( #1 ) ) ;
#98 = APPROVAL ( #162, 'UNSPECIFIED' ) ;
#99 = AXIS2_PLACEMENT_3D ( 'NONE', #126, #117, #118 ) ;
#100 = AXIS2_PLACEMENT_3D ( 'NONE', #120, #124, #121 ) ;
#101 = PRODUCT_DEFINITION ( 'UNKNOWN', '', #110, #6 ) ;
#102 = AXIS2_PLACEMENT_3D ( 'NONE', #135, #125, #127 ) ;
#103 = AXIS2_PLACEMENT_3D ( 'NONE', #114, #139, #140 ) ;
#104 = AXIS2_PLACEMENT_3D ( 'NONE', #175, #136, #133 ) ;
#105 = AXIS2_PLACEMENT_3D ( 'NONE', #134, #130, #116 ) ;
#106 = EDGE_CURVE ( 'NONE', #149, #149, #57, .T. ) ;
#107 = AXIS2_PLACEMENT_3D ( 'NONE', #115, #128, #122 ) ;
#108 = CC_DESIGN_DATE_AND_TIME_ASSIGNMENT ( #84, #165, ( #101 ) ) ;
#109 = CC_DESIGN_APPROVAL ( #112, ( #110 ) ) ;
#110 = PRODUCT_DEFINITION_FORMATION_WITH_SPECIFIED_SOURCE ( 'ANY', '', #1, .NOT_KNOWN. ) ;
#111 = AXIS2_PLACEMENT_3D ( 'NONE', #129, #143, #144 ) ;
#112 = APPROVAL ( #166, 'UNSPECIFIED' ) ;
#113 = CC_DESIGN_PERSON_AND_ORGANIZATION_ASSIGNMENT ( #61, #168, ( #110 ) ) ;
#114 = CARTESIAN_POINT ( 'NONE',  ( -3000.000000000000000, 0.0000000000000000000, 0.0000000000000000000 ) ) ;
#115 = CARTESIAN_POINT ( 'NONE',  ( 3000.000000000000000, 0.0000000000000000000, 0.0000000000000000000 ) ) ;
#116 = DIRECTION ( 'NONE',  ( 0.0000000000000000000, 0.0000000000000000000, -1.000000000000000000 ) ) ;
#117 = DIRECTION ( 'NONE',  ( 1.000000000000000000, -0.0000000000000000000, -0.0000000000000000000 ) ) ;
#118 = DIRECTION ( 'NONE',  ( 0.0000000000000000000, 0.0000000000000000000, -1.000000000000000000 ) ) ;
#119 = CARTESIAN_POINT ( 'NONE',  ( 2999.499999999999500, 0.0000000000000000000, 0.0000000000000000000 ) ) ;
#120 = CARTESIAN_POINT ( 'NONE',  ( -3000.000000000000000, 0.0000000000000000000, 0.0000000000000000000 ) ) ;
#121 = DIRECTION ( 'NONE',  ( 0.0000000000000000000, 0.0000000000000000000, -1.000000000000000000 ) ) ;
#122 = DIRECTION ( 'NONE',  ( 0.0000000000000000000, 0.0000000000000000000, 1.000000000000000000 ) ) ;
#123 = DIRECTION ( 'NONE',  ( -1.000000000000000000, 0.0000000000000000000, 0.0000000000000000000 ) ) ;
#124 = DIRECTION ( 'NONE',  ( 1.000000000000000000, 0.0000000000000000000, 0.0000000000000000000 ) ) ;
#125 = DIRECTION ( 'NONE',  ( 1.000000000000000000, 0.0000000000000000000, 0.0000000000000000000 ) ) ;
#126 = CARTESIAN_POINT ( 'NONE',  ( -2999.500000000000000, 0.0000000000000000000, 0.0000000000000000000 ) ) ;
#127 = DIRECTION ( 'NONE',  ( 0.0000000000000000000, 0.0000000000000000000, -1.000000000000000000 ) ) ;
#128 = DIRECTION ( 'NONE',  ( -1.000000000000000000, 0.0000000000000000000, 0.0000000000000000000 ) ) ;
#129 = CARTESIAN_POINT ( 'NONE',  ( 3000.000000000000000, 0.0000000000000000000, 0.0000000000000000000 ) ) ;
#130 = DIRECTION ( 'NONE',  ( 1.000000000000000000, 0.0000000000000000000, 0.0000000000000000000 ) ) ;
#131 = PLANE ( 'NONE',  #105 ) ;
#132 = PLANE ( 'NONE',  #102 ) ;
#133 = DIRECTION ( 'NONE',  ( 0.0000000000000000000, 0.0000000000000000000, -1.000000000000000000 ) ) ;
#134 = CARTESIAN_POINT ( 'NONE',  ( -3000.000000000000000, 0.0000000000000000000, 0.0000000000000000000 ) ) ;
#135 = CARTESIAN_POINT ( 'NONE',  ( 3000.000000000000000, 0.0000000000000000000, 0.0000000000000000000 ) ) ;
#136 = DIRECTION ( 'NONE',  ( 1.000000000000000000, -0.0000000000000000000, -0.0000000000000000000 ) ) ;
#137 = DIRECTION ( 'NONE',  ( 0.0000000000000000000, 0.0000000000000000000, -1.000000000000000000 ) ) ;
#138 = VERTEX_POINT ( 'NONE', #146 ) ;
#139 = DIRECTION ( 'NONE',  ( -1.000000000000000000, -0.0000000000000000000, -0.0000000000000000000 ) ) ;
#140 = DIRECTION ( 'NONE',  ( 0.0000000000000000000, 0.0000000000000000000, -1.000000000000000000 ) ) ;
#141 = VERTEX_POINT ( 'NONE', #145 ) ;
#142 = DIRECTION ( 'NONE',  ( 0.0000000000000000000, 0.0000000000000000000, 1.000000000000000000 ) ) ;
#143 = DIRECTION ( 'NONE',  ( 1.000000000000000000, 0.0000000000000000000, 0.0000000000000000000 ) ) ;
#144 = DIRECTION ( 'NONE',  ( 0.0000000000000000000, 0.0000000000000000000, -1.000000000000000000 ) ) ;
#145 = CARTESIAN_POINT ( 'NONE',  ( -2999.500000000000000, 0.0000000000000000000, -4.000000000000000000 ) ) ;
#146 = CARTESIAN_POINT ( 'NONE',  ( 2999.499999999999500, 0.0000000000000000000, -4.000000000000000000 ) ) ;
#147 = VERTEX_POINT ( 'NONE', #148 ) ;
#148 = CARTESIAN_POINT ( 'NONE',  ( -3000.000000000000000, 0.0000000000000000000, -3.500000000000724800 ) ) ;
#149 = VERTEX_POINT ( 'NONE', #150 ) ;
#150 = CARTESIAN_POINT ( 'NONE',  ( 3000.000000000000000, 0.0000000000000000000, -3.499999999998948400 ) ) ;
#151 =( LENGTH_UNIT ( ) NAMED_UNIT ( * ) SI_UNIT ( .MILLI., .METRE. ) );
#152 =( NAMED_UNIT ( * ) PLANE_ANGLE_UNIT ( ) SI_UNIT ( $, .RADIAN. ) );
#153 =( NAMED_UNIT ( * ) SI_UNIT ( $, .STERADIAN. ) SOLID_ANGLE_UNIT ( ) );
#154 = CARTESIAN_POINT ( 'NONE',  ( 0.0000000000000000000, 0.0000000000000000000, 0.0000000000000000000 ) ) ;
#155 = DIRECTION ( 'NONE',  ( 1.000000000000000000, 0.0000000000000000000, 0.0000000000000000000 ) ) ;
#156 = APPLICATION_CONTEXT ( 'configuration controlled 3d designs of mechanical parts and assemblies' ) ;
#157 = APPLICATION_PROTOCOL_DEFINITION ( 'international standard', 'config_control_design', 1994, #156 ) ;
#158 = MECHANICAL_CONTEXT ( 'NONE', #156, 'mechanical' ) ;
#159 = PERSON_AND_ORGANIZATION_ROLE ( 'design_owner' ) ;
#160 = APPLICATION_CONTEXT ( 'configuration controlled 3d designs of mechanical parts and assemblies' ) ;
#161 = APPLICATION_PROTOCOL_DEFINITION ( 'international standard', 'config_control_design', 1994, #160 ) ;
#162 = APPROVAL_STATUS ( 'not_yet_approved' ) ;
#163 = APPROVAL_ROLE ( '' ) ;
#164 = PERSON_AND_ORGANIZATION_ROLE ( 'creator' ) ;
#165 = DATE_TIME_ROLE ( 'creation_date' ) ;
#166 = APPROVAL_STATUS ( 'not_yet_approved' ) ;
#167 = APPROVAL_ROLE ( '' ) ;
#168 = PERSON_AND_ORGANIZATION_ROLE ( 'creator' ) ;
#169 = PERSON_AND_ORGANIZATION_ROLE ( 'design_supplier' ) ;
#170 = SECURITY_CLASSIFICATION_LEVEL ( 'unclassified' ) ;
#171 = PERSON_AND_ORGANIZATION_ROLE ( 'classification_officer' ) ;
#172 = DATE_TIME_ROLE ( 'classification_date' ) ;
#173 = APPROVAL_STATUS ( 'not_yet_approved' ) ;
#174 = APPROVAL_ROLE ( '' ) ;
#175 = CARTESIAN_POINT ( 'NONE',  ( -2999.500000000000000, 0.0000000000000000000, 0.0000000000000000000 ) ) ;
ENDSEC;
END-ISO-10303-21;
