ISO-10303-21;
HEADER;
FILE_DESCRIPTION (( 'STEP AP203' ),
    '1' );
FILE_NAME ('SF6.STEP',
    '2016-03-18T07:33:43',
    ( '' ),
    ( '' ),
    'SwSTEP 2.0',
    'SolidWorks 2010',
    '' );
FILE_SCHEMA (( 'CONFIG_CONTROL_DESIGN' ));
ENDSEC;

DATA;
#1 = PRODUCT ( 'SF6', 'SF6', '', ( #140 ) ) ;
#2 = PERSON ( 'UNSPECIFIED', 'UNSPECIFIED', 'UNSPECIFIED', ('UNSPECIFIED'), ('UNSPECIFIED'), ('UNSPECIFIED') ) ;
#3 = MANIFOLD_SOLID_BREP ( 'Chamfer1', #57 ) ;
#4 = UNCERTAINTY_MEASURE_WITH_UNIT (LENGTH_MEASURE( 1.000000000000000100E-005 ), #157, 'distance_accuracy_value', 'NONE');
#5 = ADVANCED_BREP_SHAPE_REPRESENTATION ( 'SF6', ( #3, #96 ), #36 ) ;
#6 = DATE_AND_TIME ( #49, #50 ) ;
#7 = DATE_AND_TIME ( #12, #11 ) ;
#8 = DATE_AND_TIME ( #44, #43 ) ;
#9 = APPROVAL_DATE_TIME ( #7, #83 ) ;
#10 = EDGE_LOOP ( 'NONE', ( #29 ) ) ;
#11 = LOCAL_TIME ( 9, 33, 43.00000000000000000, #47 ) ;
#12 = CALENDAR_DATE ( 2016, 18, 3 ) ;
#13 = FACE_OUTER_BOUND ( 'NONE', #10, .T. ) ;
#14 = APPROVAL_PERSON_ORGANIZATION ( #48, #83, #172 ) ;
#15 = FACE_OUTER_BOUND ( 'NONE', #20, .T. ) ;
#16 = ORIENTED_EDGE ( 'NONE', *, *, #106, .T. ) ;
#17 = FACE_OUTER_BOUND ( 'NONE', #25, .T. ) ;
#18 = FACE_OUTER_BOUND ( 'NONE', #60, .T. ) ;
#19 = CYLINDRICAL_SURFACE ( 'NONE', #103, 3.000000000000000400 ) ;
#20 = EDGE_LOOP ( 'NONE', ( #52 ) ) ;
#21 = EDGE_LOOP ( 'NONE', ( #27 ) ) ;
#22 = FACE_OUTER_BOUND ( 'NONE', #23, .T. ) ;
#23 = EDGE_LOOP ( 'NONE', ( #16 ) ) ;
#24 = EDGE_LOOP ( 'NONE', ( #28 ) ) ;
#25 = EDGE_LOOP ( 'NONE', ( #55 ) ) ;
#26 = EDGE_LOOP ( 'NONE', ( #54 ) ) ;
#27 = ORIENTED_EDGE ( 'NONE', *, *, #109, .F. ) ;
#28 = ORIENTED_EDGE ( 'NONE', *, *, #93, .F. ) ;
#29 = ORIENTED_EDGE ( 'NONE', *, *, #105, .F. ) ;
#30 = ORIENTED_EDGE ( 'NONE', *, *, #109, .T. ) ;
#31 = FACE_BOUND ( 'NONE', #24, .T. ) ;
#32 = FACE_BOUND ( 'NONE', #21, .T. ) ;
#33 = CIRCLE ( 'NONE', #100, 2.500000000000390800 ) ;
#34 = CIRCLE ( 'NONE', #91, 3.000000000000000400 ) ;
#35 = CIRCLE ( 'NONE', #102, 3.000000000000000400 ) ;
#36 =( GEOMETRIC_REPRESENTATION_CONTEXT ( 3 ) GLOBAL_UNCERTAINTY_ASSIGNED_CONTEXT ( ( #4 ) ) GLOBAL_UNIT_ASSIGNED_CONTEXT ( ( #157, #158, #159 ) ) REPRESENTATION_CONTEXT ( 'NONE', 'WORKASPACE' ) );
#37 = ORGANIZATION ( 'UNSPECIFIED', 'UNSPECIFIED', '' ) ;
#38 = SHAPE_DEFINITION_REPRESENTATION ( #113, #5 ) ;
#39 = PERSON_AND_ORGANIZATION ( #2, #37 ) ;
#40 = PERSON_AND_ORGANIZATION ( #2, #37 ) ;
#41 = APPROVAL_PERSON_ORGANIZATION ( #40, #89, #136 ) ;
#42 = COORDINATED_UNIVERSAL_TIME_OFFSET ( 2, 0, .AHEAD. ) ;
#43 = LOCAL_TIME ( 9, 33, 43.00000000000000000, #42 ) ;
#44 = CALENDAR_DATE ( 2016, 18, 3 ) ;
#45 = APPROVAL_DATE_TIME ( #8, #89 ) ;
#46 = COORDINATED_UNIVERSAL_TIME_OFFSET ( 2, 0, .AHEAD. ) ;
#47 = COORDINATED_UNIVERSAL_TIME_OFFSET ( 2, 0, .AHEAD. ) ;
#48 = PERSON_AND_ORGANIZATION ( #2, #37 ) ;
#49 = CALENDAR_DATE ( 2016, 18, 3 ) ;
#50 = LOCAL_TIME ( 9, 33, 43.00000000000000000, #46 ) ;
#51 = CIRCLE ( 'NONE', #98, 2.500000000000390800 ) ;
#52 = ORIENTED_EDGE ( 'NONE', *, *, #93, .T. ) ;
#53 = PERSON_AND_ORGANIZATION ( #2, #37 ) ;
#54 = ORIENTED_EDGE ( 'NONE', *, *, #105, .T. ) ;
#55 = ORIENTED_EDGE ( 'NONE', *, *, #106, .F. ) ;
#56 = CONICAL_SURFACE ( 'NONE', #99, 2.500000000000390800, 0.7853981633973351500 ) ;
#57 = CLOSED_SHELL ( 'NONE', ( #75, #77, #78, #76, #79 ) ) ;
#58 = CONICAL_SURFACE ( 'NONE', #101, 3.000000000000000400, 0.7853981633973351500 ) ;
#59 = FACE_OUTER_BOUND ( 'NONE', #26, .T. ) ;
#60 = EDGE_LOOP ( 'NONE', ( #30 ) ) ;
#61 = PERSON_AND_ORGANIZATION ( #2, #37 ) ;
#62 = PERSON_AND_ORGANIZATION ( #2, #37 ) ;
#63 = PERSON_AND_ORGANIZATION ( #2, #37 ) ;
#64 = COORDINATED_UNIVERSAL_TIME_OFFSET ( 2, 0, .AHEAD. ) ;
#65 = LOCAL_TIME ( 9, 33, 43.00000000000000000, #64 ) ;
#66 = CALENDAR_DATE ( 2016, 18, 3 ) ;
#67 = DATE_AND_TIME ( #66, #65 ) ;
#68 = PERSON_AND_ORGANIZATION ( #2, #37 ) ;
#69 = APPROVAL_PERSON_ORGANIZATION ( #68, #110, #170 ) ;
#70 = COORDINATED_UNIVERSAL_TIME_OFFSET ( 2, 0, .AHEAD. ) ;
#71 = LOCAL_TIME ( 9, 33, 43.00000000000000000, #70 ) ;
#72 = CALENDAR_DATE ( 2016, 18, 3 ) ;
#73 = DATE_AND_TIME ( #72, #71 ) ;
#74 = APPROVAL_DATE_TIME ( #73, #110 ) ;
#75 = ADVANCED_FACE ( 'NONE', ( #59, #22 ), #19, .T. ) ;
#76 = ADVANCED_FACE ( 'NONE', ( #32, #13 ), #58, .T. ) ;
#77 = ADVANCED_FACE ( 'NONE', ( #18 ), #145, .F. ) ;
#78 = ADVANCED_FACE ( 'NONE', ( #15 ), #143, .T. ) ;
#79 = ADVANCED_FACE ( 'NONE', ( #17, #31 ), #56, .T. ) ;
#80 = AXIS2_PLACEMENT_3D ( 'NONE', #135, #131, #137 ) ;
#81 = CC_DESIGN_SECURITY_CLASSIFICATION ( #94, ( #84 ) ) ;
#82 = CC_DESIGN_APPROVAL ( #83, ( #84 ) ) ;
#83 = APPROVAL ( #163, 'UNSPECIFIED' ) ;
#84 = PRODUCT_DEFINITION_FORMATION_WITH_SPECIFIED_SOURCE ( 'ANY', '', #1, .NOT_KNOWN. ) ;
#85 = CC_DESIGN_DATE_AND_TIME_ASSIGNMENT ( #6, #168, ( #90 ) ) ;
#86 = CC_DESIGN_PERSON_AND_ORGANIZATION_ASSIGNMENT ( #53, #166, ( #90 ) ) ;
#87 = PRODUCT_RELATED_PRODUCT_CATEGORY ( 'detail', '', ( #1 ) ) ;
#88 = CC_DESIGN_APPROVAL ( #89, ( #90 ) ) ;
#89 = APPROVAL ( #162, 'UNSPECIFIED' ) ;
#90 = PRODUCT_DEFINITION ( 'UNKNOWN', '', #84, #112 ) ;
#91 = AXIS2_PLACEMENT_3D ( 'NONE', #134, #152, #117 ) ;
#92 = CC_DESIGN_PERSON_AND_ORGANIZATION_ASSIGNMENT ( #39, #130, ( #1 ) ) ;
#93 = EDGE_CURVE ( 'NONE', #147, #147, #33, .T. ) ;
#94 = SECURITY_CLASSIFICATION ( '', '', #175 ) ;
#95 = CC_DESIGN_PERSON_AND_ORGANIZATION_ASSIGNMENT ( #63, #115, ( #94 ) ) ;
#96 = AXIS2_PLACEMENT_3D ( 'NONE', #161, #156, #150 ) ;
#97 = CC_DESIGN_PERSON_AND_ORGANIZATION_ASSIGNMENT ( #61, #169, ( #84 ) ) ;
#98 = AXIS2_PLACEMENT_3D ( 'NONE', #141, #165, #148 ) ;
#99 = AXIS2_PLACEMENT_3D ( 'NONE', #119, #173, #126 ) ;
#100 = AXIS2_PLACEMENT_3D ( 'NONE', #120, #114, #146 ) ;
#101 = AXIS2_PLACEMENT_3D ( 'NONE', #138, #128, #127 ) ;
#102 = AXIS2_PLACEMENT_3D ( 'NONE', #116, #139, #142 ) ;
#103 = AXIS2_PLACEMENT_3D ( 'NONE', #132, #155, #133 ) ;
#104 = AXIS2_PLACEMENT_3D ( 'NONE', #144, #124, #123 ) ;
#105 = EDGE_CURVE ( 'NONE', #121, #121, #34, .T. ) ;
#106 = EDGE_CURVE ( 'NONE', #122, #122, #35, .T. ) ;
#107 = CC_DESIGN_DATE_AND_TIME_ASSIGNMENT ( #67, #174, ( #94 ) ) ;
#108 = CC_DESIGN_APPROVAL ( #110, ( #94 ) ) ;
#109 = EDGE_CURVE ( 'NONE', #153, #153, #51, .T. ) ;
#110 = APPROVAL ( #171, 'UNSPECIFIED' ) ;
#111 = CC_DESIGN_PERSON_AND_ORGANIZATION_ASSIGNMENT ( #62, #164, ( #84 ) ) ;
#112 = DESIGN_CONTEXT ( 'detailed design', #125, 'design' ) ;
#113 = PRODUCT_DEFINITION_SHAPE ( 'NONE', 'NONE',  #90 ) ;
#114 = DIRECTION ( 'NONE',  ( 1.000000000000000000, 0.0000000000000000000, 0.0000000000000000000 ) ) ;
#115 = PERSON_AND_ORGANIZATION_ROLE ( 'classification_officer' ) ;
#116 = CARTESIAN_POINT ( 'NONE',  ( 2999.500000000000500, 0.0000000000000000000, 0.0000000000000000000 ) ) ;
#117 = DIRECTION ( 'NONE',  ( 0.0000000000000000000, 0.0000000000000000000, -1.000000000000000000 ) ) ;
#118 = APPLICATION_CONTEXT ( 'configuration controlled 3d designs of mechanical parts and assemblies' ) ;
#119 = CARTESIAN_POINT ( 'NONE',  ( 3000.000000000000000, 0.0000000000000000000, 0.0000000000000000000 ) ) ;
#120 = CARTESIAN_POINT ( 'NONE',  ( 3000.000000000000000, 0.0000000000000000000, 0.0000000000000000000 ) ) ;
#121 = VERTEX_POINT ( 'NONE', #167 ) ;
#122 = VERTEX_POINT ( 'NONE', #149 ) ;
#123 = DIRECTION ( 'NONE',  ( 0.0000000000000000000, 0.0000000000000000000, -1.000000000000000000 ) ) ;
#124 = DIRECTION ( 'NONE',  ( 1.000000000000000000, 0.0000000000000000000, 0.0000000000000000000 ) ) ;
#125 = APPLICATION_CONTEXT ( 'configuration controlled 3d designs of mechanical parts and assemblies' ) ;
#126 = DIRECTION ( 'NONE',  ( 0.0000000000000000000, 0.0000000000000000000, 1.000000000000000000 ) ) ;
#127 = DIRECTION ( 'NONE',  ( 0.0000000000000000000, 0.0000000000000000000, -1.000000000000000000 ) ) ;
#128 = DIRECTION ( 'NONE',  ( 1.000000000000000000, -0.0000000000000000000, -0.0000000000000000000 ) ) ;
#129 = CARTESIAN_POINT ( 'NONE',  ( 3000.000000000000000, 0.0000000000000000000, -2.500000000000390800 ) ) ;
#130 = PERSON_AND_ORGANIZATION_ROLE ( 'design_owner' ) ;
#131 = DIRECTION ( 'NONE',  ( 1.000000000000000000, 0.0000000000000000000, 0.0000000000000000000 ) ) ;
#132 = CARTESIAN_POINT ( 'NONE',  ( -3000.000000000000000, 0.0000000000000000000, 0.0000000000000000000 ) ) ;
#133 = DIRECTION ( 'NONE',  ( 0.0000000000000000000, 0.0000000000000000000, -1.000000000000000000 ) ) ;
#134 = CARTESIAN_POINT ( 'NONE',  ( -2999.500000000000500, 0.0000000000000000000, 0.0000000000000000000 ) ) ;
#135 = CARTESIAN_POINT ( 'NONE',  ( -3000.000000000000000, 0.0000000000000000000, 0.0000000000000000000 ) ) ;
#136 = APPROVAL_ROLE ( '' ) ;
#137 = DIRECTION ( 'NONE',  ( 0.0000000000000000000, 0.0000000000000000000, -1.000000000000000000 ) ) ;
#138 = CARTESIAN_POINT ( 'NONE',  ( -2999.500000000000500, 0.0000000000000000000, 0.0000000000000000000 ) ) ;
#139 = DIRECTION ( 'NONE',  ( -1.000000000000000000, 0.0000000000000000000, 0.0000000000000000000 ) ) ;
#140 = MECHANICAL_CONTEXT ( 'NONE', #118, 'mechanical' ) ;
#141 = CARTESIAN_POINT ( 'NONE',  ( -3000.000000000000000, 0.0000000000000000000, 0.0000000000000000000 ) ) ;
#142 = DIRECTION ( 'NONE',  ( 0.0000000000000000000, 0.0000000000000000000, -1.000000000000000000 ) ) ;
#143 = PLANE ( 'NONE',  #104 ) ;
#144 = CARTESIAN_POINT ( 'NONE',  ( 3000.000000000000000, 0.0000000000000000000, 0.0000000000000000000 ) ) ;
#145 = PLANE ( 'NONE',  #80 ) ;
#146 = DIRECTION ( 'NONE',  ( 0.0000000000000000000, 0.0000000000000000000, -1.000000000000000000 ) ) ;
#147 = VERTEX_POINT ( 'NONE', #129 ) ;
#148 = DIRECTION ( 'NONE',  ( 0.0000000000000000000, 0.0000000000000000000, -1.000000000000000000 ) ) ;
#149 = CARTESIAN_POINT ( 'NONE',  ( 2999.500000000000500, 0.0000000000000000000, -3.000000000000000400 ) ) ;
#150 = DIRECTION ( 'NONE',  ( 1.000000000000000000, 0.0000000000000000000, 0.0000000000000000000 ) ) ;
#151 = APPLICATION_PROTOCOL_DEFINITION ( 'international standard', 'config_control_design', 1994, #125 ) ;
#152 = DIRECTION ( 'NONE',  ( 1.000000000000000000, -0.0000000000000000000, -0.0000000000000000000 ) ) ;
#153 = VERTEX_POINT ( 'NONE', #154 ) ;
#154 = CARTESIAN_POINT ( 'NONE',  ( -3000.000000000000000, 0.0000000000000000000, -2.500000000000390800 ) ) ;
#155 = DIRECTION ( 'NONE',  ( 1.000000000000000000, 0.0000000000000000000, 0.0000000000000000000 ) ) ;
#156 = DIRECTION ( 'NONE',  ( 0.0000000000000000000, 0.0000000000000000000, 1.000000000000000000 ) ) ;
#157 =( LENGTH_UNIT ( ) NAMED_UNIT ( * ) SI_UNIT ( .MILLI., .METRE. ) );
#158 =( NAMED_UNIT ( * ) PLANE_ANGLE_UNIT ( ) SI_UNIT ( $, .RADIAN. ) );
#159 =( NAMED_UNIT ( * ) SI_UNIT ( $, .STERADIAN. ) SOLID_ANGLE_UNIT ( ) );
#160 = APPLICATION_PROTOCOL_DEFINITION ( 'international standard', 'config_control_design', 1994, #118 ) ;
#161 = CARTESIAN_POINT ( 'NONE',  ( 0.0000000000000000000, 0.0000000000000000000, 0.0000000000000000000 ) ) ;
#162 = APPROVAL_STATUS ( 'not_yet_approved' ) ;
#163 = APPROVAL_STATUS ( 'not_yet_approved' ) ;
#164 = PERSON_AND_ORGANIZATION_ROLE ( 'design_supplier' ) ;
#165 = DIRECTION ( 'NONE',  ( -1.000000000000000000, -0.0000000000000000000, -0.0000000000000000000 ) ) ;
#166 = PERSON_AND_ORGANIZATION_ROLE ( 'creator' ) ;
#167 = CARTESIAN_POINT ( 'NONE',  ( -2999.500000000000500, 0.0000000000000000000, -3.000000000000000400 ) ) ;
#168 = DATE_TIME_ROLE ( 'creation_date' ) ;
#169 = PERSON_AND_ORGANIZATION_ROLE ( 'creator' ) ;
#170 = APPROVAL_ROLE ( '' ) ;
#171 = APPROVAL_STATUS ( 'not_yet_approved' ) ;
#172 = APPROVAL_ROLE ( '' ) ;
#173 = DIRECTION ( 'NONE',  ( -1.000000000000000000, 0.0000000000000000000, 0.0000000000000000000 ) ) ;
#174 = DATE_TIME_ROLE ( 'classification_date' ) ;
#175 = SECURITY_CLASSIFICATION_LEVEL ( 'unclassified' ) ;
ENDSEC;
END-ISO-10303-21;
