ISO-10303-21;
HEADER;
/* Generated by software containing ST-Developer
 * from STEP Tools, Inc. (www.steptools.com) 
 */

FILE_DESCRIPTION(
/* description */ (''),
/* implementation_level */ '2;1');

FILE_NAME(
/* name */ 'SCI4010',
/* time_stamp */ '2007-10-26T13:19:53+08:00',
/* author */ (''),
/* organization */ (''),
/* preprocessor_version */ 'ST-DEVELOPER v9',
/* originating_system */ 'EDS PLM SOLUTIONS - UNIGRAPHICS NX 1.0',
/* authorisation */ '');

FILE_SCHEMA (('CONFIG_CONTROL_DESIGN'));
ENDSEC;

DATA;
#10=SHAPE_REPRESENTATION_RELATIONSHIP('none',
'relationship between FANNDA0400ho-none and FANNDA0400ho-none',#94,#11);
#11=ADVANCED_BREP_SHAPE_REPRESENTATION('FANNDA0400ho-none',(#97,#98),#609);
#12=CC_DESIGN_APPROVAL(#24,(#82));
#13=CC_DESIGN_APPROVAL(#25,(#84));
#14=CC_DESIGN_APPROVAL(#26,(#31));
#15=APPROVAL_PERSON_ORGANIZATION(#69,#24,#18);
#16=APPROVAL_PERSON_ORGANIZATION(#70,#25,#19);
#17=APPROVAL_PERSON_ORGANIZATION(#71,#26,#20);
#18=APPROVAL_ROLE('approver');
#19=APPROVAL_ROLE('approver');
#20=APPROVAL_ROLE('approver');
#21=APPROVAL_DATE_TIME(#39,#24);
#22=APPROVAL_DATE_TIME(#40,#25);
#23=APPROVAL_DATE_TIME(#41,#26);
#24=APPROVAL(#27,' ');
#25=APPROVAL(#28,' ');
#26=APPROVAL(#29,' ');
#27=APPROVAL_STATUS('not_yet_approved');
#28=APPROVAL_STATUS('not_yet_approved');
#29=APPROVAL_STATUS('not_yet_approved');
#30=CC_DESIGN_SECURITY_CLASSIFICATION(#31,(#84));
#31=SECURITY_CLASSIFICATION(' ',' ',#32);
#32=SECURITY_CLASSIFICATION_LEVEL('confidential');
#33=CC_DESIGN_DATE_AND_TIME_ASSIGNMENT(#37,#35,(#82));
#34=CC_DESIGN_DATE_AND_TIME_ASSIGNMENT(#38,#36,(#31));
#35=DATE_TIME_ROLE('creation_date');
#36=DATE_TIME_ROLE('classification_date');
#37=DATE_AND_TIME(#52,#42);
#38=DATE_AND_TIME(#53,#43);
#39=DATE_AND_TIME(#54,#44);
#40=DATE_AND_TIME(#55,#45);
#41=DATE_AND_TIME(#56,#46);
#42=LOCAL_TIME(0,0,0.,#47);
#43=LOCAL_TIME(0,0,0.,#48);
#44=LOCAL_TIME(0,0,0.,#49);
#45=LOCAL_TIME(0,0,0.,#50);
#46=LOCAL_TIME(0,0,0.,#51);
#47=COORDINATED_UNIVERSAL_TIME_OFFSET(0,0,.BEHIND.);
#48=COORDINATED_UNIVERSAL_TIME_OFFSET(0,0,.BEHIND.);
#49=COORDINATED_UNIVERSAL_TIME_OFFSET(0,0,.BEHIND.);
#50=COORDINATED_UNIVERSAL_TIME_OFFSET(0,0,.BEHIND.);
#51=COORDINATED_UNIVERSAL_TIME_OFFSET(0,0,.BEHIND.);
#52=CALENDAR_DATE(0,1,1);
#53=CALENDAR_DATE(0,1,1);
#54=CALENDAR_DATE(0,1,1);
#55=CALENDAR_DATE(0,1,1);
#56=CALENDAR_DATE(0,1,1);
#57=CC_DESIGN_PERSON_AND_ORGANIZATION_ASSIGNMENT(#65,#61,(#82,#84));
#58=CC_DESIGN_PERSON_AND_ORGANIZATION_ASSIGNMENT(#66,#62,(#86));
#59=CC_DESIGN_PERSON_AND_ORGANIZATION_ASSIGNMENT(#67,#63,(#84));
#60=CC_DESIGN_PERSON_AND_ORGANIZATION_ASSIGNMENT(#68,#64,(#31));
#61=PERSON_AND_ORGANIZATION_ROLE('creator');
#62=PERSON_AND_ORGANIZATION_ROLE('design_owner');
#63=PERSON_AND_ORGANIZATION_ROLE('design_supplier');
#64=PERSON_AND_ORGANIZATION_ROLE('classification_officer');
#65=PERSON_AND_ORGANIZATION(#79,#72);
#66=PERSON_AND_ORGANIZATION(#79,#73);
#67=PERSON_AND_ORGANIZATION(#79,#74);
#68=PERSON_AND_ORGANIZATION(#79,#75);
#69=PERSON_AND_ORGANIZATION(#79,#76);
#70=PERSON_AND_ORGANIZATION(#79,#77);
#71=PERSON_AND_ORGANIZATION(#79,#78);
#72=ORGANIZATION(' ',' ',' ');
#73=ORGANIZATION(' ',' ',' ');
#74=ORGANIZATION(' ',' ',' ');
#75=ORGANIZATION(' ',' ',' ');
#76=ORGANIZATION(' ',' ',' ');
#77=ORGANIZATION(' ',' ',' ');
#78=ORGANIZATION(' ',' ',' ');
#79=PERSON(' ',' ',' ',(' '),$,$);
#80=SHAPE_DEFINITION_REPRESENTATION(#81,#94);
#81=PRODUCT_DEFINITION_SHAPE('','',#82);
#82=PRODUCT_DEFINITION(' ','',#84,#83);
#83=DESIGN_CONTEXT('',#93,'design');
#84=PRODUCT_DEFINITION_FORMATION_WITH_SPECIFIED_SOURCE(' ',' ',#86,.NOT_KNOWN.);
#85=PRODUCT_RELATED_PRODUCT_CATEGORY('detail','',(#86));
#86=PRODUCT('FANNDA0400ho','FANNDA0400ho',' ',(#91));
#87=PRODUCT_CATEGORY_RELATIONSHIP(' ',' ',#89,#90);
#88=PRODUCT_CATEGORY_RELATIONSHIP('','',#90,#85);
#89=PRODUCT_CATEGORY('part',' ');
#90=PRODUCT_CATEGORY(' ','');
#91=MECHANICAL_CONTEXT(' ',#93,'mechanical');
#92=APPLICATION_PROTOCOL_DEFINITION('international standard',
'config_control_design',1994,#93);
#93=APPLICATION_CONTEXT(
'configuration controlled 3D designs of mechanical parts and assemblies
');
#94=SHAPE_REPRESENTATION('FANNDA0400ho-none',(#339),#609);
#95=CONICAL_SURFACE('',#371,18.5000000000001,45.);
#96=CONICAL_SURFACE('',#372,20.0000000000001,45.);
#97=MANIFOLD_SOLID_BREP('',#99);
#98=MANIFOLD_SOLID_BREP('',#100);
#99=CLOSED_SHELL('',(#142,#143,#144,#145,#146,#147,#148,#149,#150,#151,#152,
#153,#154,#155));
#100=CLOSED_SHELL('',(#156,#157,#158,#159,#160));
#101=PLANE('',#352);
#102=PLANE('',#354);
#103=PLANE('',#358);
#104=PLANE('',#361);
#105=PLANE('',#362);
#106=PLANE('',#365);
#107=PLANE('',#370);
#108=FACE_OUTER_BOUND('',#204,.T.);
#109=FACE_OUTER_BOUND('',#206,.T.);
#110=FACE_OUTER_BOUND('',#210,.T.);
#111=FACE_OUTER_BOUND('',#211,.T.);
#112=FACE_OUTER_BOUND('',#212,.T.);
#113=FACE_OUTER_BOUND('',#213,.T.);
#114=FACE_OUTER_BOUND('',#214,.T.);
#115=FACE_OUTER_BOUND('',#217,.T.);
#116=FACE_OUTER_BOUND('',#220,.T.);
#117=FACE_OUTER_BOUND('',#221,.T.);
#118=FACE_OUTER_BOUND('',#224,.T.);
#119=LINE('',#540,#127);
#120=LINE('',#554,#128);
#121=LINE('',#578,#129);
#122=LINE('',#582,#130);
#123=LINE('',#584,#131);
#124=LINE('',#586,#132);
#125=LINE('',#588,#133);
#126=LINE('',#592,#134);
#127=VECTOR('',#389,1.);
#128=VECTOR('',#390,1.);
#129=VECTOR('',#409,1.);
#130=VECTOR('',#412,1.);
#131=VECTOR('',#415,1.);
#132=VECTOR('',#416,1.);
#133=VECTOR('',#419,1.);
#134=VECTOR('',#424,1.);
#135=CYLINDRICAL_SURFACE('',#345,21.);
#136=CYLINDRICAL_SURFACE('',#347,31.0000000000001);
#137=CYLINDRICAL_SURFACE('',#349,31.0000000000001);
#138=CYLINDRICAL_SURFACE('',#357,2.5);
#139=CYLINDRICAL_SURFACE('',#360,2.5);
#140=CYLINDRICAL_SURFACE('',#363,1.75);
#141=CYLINDRICAL_SURFACE('',#368,20.0000000000001);
#142=ADVANCED_FACE('',(#168,#169,#170),#161,.F.);
#143=ADVANCED_FACE('',(#171,#172,#173),#135,.F.);
#144=ADVANCED_FACE('',(#174,#175,#176),#136,.T.);
#145=ADVANCED_FACE('',(#177,#178),#137,.T.);
#146=ADVANCED_FACE('',(#179,#180),#162,.T.);
#147=ADVANCED_FACE('',(#108,#181),#101,.T.);
#148=ADVANCED_FACE('',(#109,#182),#102,.F.);
#149=ADVANCED_FACE('',(#183,#184),#163,.T.);
#150=ADVANCED_FACE('',(#110),#138,.F.);
#151=ADVANCED_FACE('',(#111),#103,.T.);
#152=ADVANCED_FACE('',(#112),#139,.F.);
#153=ADVANCED_FACE('',(#113),#104,.F.);
#154=ADVANCED_FACE('',(#114),#105,.T.);
#155=ADVANCED_FACE('',(#185,#186),#140,.F.);
#156=ADVANCED_FACE('',(#115),#106,.T.);
#157=ADVANCED_FACE('',(#187,#188),#141,.T.);
#158=ADVANCED_FACE('',(#116),#107,.F.);
#159=ADVANCED_FACE('',(#117,#189),#95,.T.);
#160=ADVANCED_FACE('',(#190,#118),#96,.T.);
#161=TOROIDAL_SURFACE('',#342,33.7500000000001,3.75);
#162=TOROIDAL_SURFACE('',#351,29.5000000000001,1.5);
#163=TOROIDAL_SURFACE('',#355,29.5000000000001,1.5);
#164=B_SPLINE_CURVE_WITH_KNOTS('',3,(#454,#455,#456,#457,#458,#459,#460,
#461,#462,#463,#464,#465,#466,#467,#468,#469,#470,#471),.UNSPECIFIED.,.T.,
.F.,(2,2,2,2,2,2,2,2,2,2,2),(-0.125,0.,0.125,0.25,0.375,0.5,0.625,0.75,0.875,
1.,1.125),.UNSPECIFIED.);
#165=B_SPLINE_CURVE_WITH_KNOTS('',3,(#478,#479,#480,#481,#482,#483,#484,
#485,#486,#487,#488,#489,#490,#491,#492,#493,#494,#495,#496,#497,#498,#499,
#500,#501,#502,#503,#504,#505,#506,#507,#508,#509,#510,#511,#512,#513,#514,
#515,#516,#517,#518,#519,#520,#521,#522,#523,#524,#525,#526,#527,#528,#529,
#530,#531,#532,#533,#534,#535),.UNSPECIFIED.,.T.,.F.,(1,3,3,3,3,3,3,3,3,
3,3,3,3,3,3,3,3,3,3,3,3,1),(-0.0344909545680332,0.,0.0535775017047824,0.107147065207276,
0.160835622876655,0.214605883170439,0.268248182833308,0.321753250455229,
0.375324475041724,0.429062634995413,0.482809112495545,0.536390677764613,
0.5898919544184,0.643522328504823,0.697289996309275,0.75098924795451,0.804521779476609,
0.858048673430321,0.911739139649767,0.965509045431967,1.,1.05357750170478),
.UNSPECIFIED.);
#166=B_SPLINE_CURVE_WITH_KNOTS('',3,(#543,#544,#545,#546,#547,#548,#549,
#550,#551,#552),.UNSPECIFIED.,.F.,.F.,(4,2,2,2,4),(0.,0.25,0.5,0.75,1.),
.UNSPECIFIED.);
#167=B_SPLINE_CURVE_WITH_KNOTS('',3,(#556,#557,#558,#559,#560,#561,#562,
#563,#564,#565),.UNSPECIFIED.,.F.,.F.,(4,2,2,2,4),(0.,0.25,0.5,0.75,1.),
.UNSPECIFIED.);
#168=FACE_BOUND('',#191,.T.);
#169=FACE_BOUND('',#192,.T.);
#170=FACE_BOUND('',#193,.T.);
#171=FACE_BOUND('',#194,.T.);
#172=FACE_BOUND('',#195,.T.);
#173=FACE_BOUND('',#196,.T.);
#174=FACE_BOUND('',#197,.T.);
#175=FACE_BOUND('',#198,.T.);
#176=FACE_BOUND('',#199,.T.);
#177=FACE_BOUND('',#200,.T.);
#178=FACE_BOUND('',#201,.T.);
#179=FACE_BOUND('',#202,.T.);
#180=FACE_BOUND('',#203,.T.);
#181=FACE_BOUND('',#205,.T.);
#182=FACE_BOUND('',#207,.T.);
#183=FACE_BOUND('',#208,.T.);
#184=FACE_BOUND('',#209,.T.);
#185=FACE_BOUND('',#215,.T.);
#186=FACE_BOUND('',#216,.T.);
#187=FACE_BOUND('',#218,.T.);
#188=FACE_BOUND('',#219,.T.);
#189=FACE_BOUND('',#222,.T.);
#190=FACE_BOUND('',#223,.T.);
#191=EDGE_LOOP('',(#225));
#192=EDGE_LOOP('',(#226));
#193=EDGE_LOOP('',(#227));
#194=EDGE_LOOP('',(#228));
#195=EDGE_LOOP('',(#229));
#196=EDGE_LOOP('',(#230));
#197=EDGE_LOOP('',(#231));
#198=EDGE_LOOP('',(#232));
#199=EDGE_LOOP('',(#233,#234,#235,#236));
#200=EDGE_LOOP('',(#237));
#201=EDGE_LOOP('',(#238));
#202=EDGE_LOOP('',(#239));
#203=EDGE_LOOP('',(#240));
#204=EDGE_LOOP('',(#241));
#205=EDGE_LOOP('',(#242));
#206=EDGE_LOOP('',(#243));
#207=EDGE_LOOP('',(#244));
#208=EDGE_LOOP('',(#245));
#209=EDGE_LOOP('',(#246));
#210=EDGE_LOOP('',(#247,#248,#249,#250));
#211=EDGE_LOOP('',(#251,#252,#253,#254));
#212=EDGE_LOOP('',(#255,#256,#257,#258));
#213=EDGE_LOOP('',(#259,#260,#261,#262));
#214=EDGE_LOOP('',(#263,#264,#265,#266));
#215=EDGE_LOOP('',(#267));
#216=EDGE_LOOP('',(#268));
#217=EDGE_LOOP('',(#269));
#218=EDGE_LOOP('',(#270));
#219=EDGE_LOOP('',(#271));
#220=EDGE_LOOP('',(#272));
#221=EDGE_LOOP('',(#273));
#222=EDGE_LOOP('',(#274));
#223=EDGE_LOOP('',(#275));
#224=EDGE_LOOP('',(#276));
#225=ORIENTED_EDGE('',*,*,#299,.T.);
#226=ORIENTED_EDGE('',*,*,#300,.F.);
#227=ORIENTED_EDGE('',*,*,#301,.F.);
#228=ORIENTED_EDGE('',*,*,#302,.T.);
#229=ORIENTED_EDGE('',*,*,#303,.F.);
#230=ORIENTED_EDGE('',*,*,#304,.F.);
#231=ORIENTED_EDGE('',*,*,#299,.F.);
#232=ORIENTED_EDGE('',*,*,#305,.T.);
#233=ORIENTED_EDGE('',*,*,#306,.T.);
#234=ORIENTED_EDGE('',*,*,#307,.T.);
#235=ORIENTED_EDGE('',*,*,#308,.F.);
#236=ORIENTED_EDGE('',*,*,#309,.T.);
#237=ORIENTED_EDGE('',*,*,#300,.T.);
#238=ORIENTED_EDGE('',*,*,#310,.F.);
#239=ORIENTED_EDGE('',*,*,#310,.T.);
#240=ORIENTED_EDGE('',*,*,#311,.F.);
#241=ORIENTED_EDGE('',*,*,#311,.T.);
#242=ORIENTED_EDGE('',*,*,#302,.F.);
#243=ORIENTED_EDGE('',*,*,#312,.F.);
#244=ORIENTED_EDGE('',*,*,#303,.T.);
#245=ORIENTED_EDGE('',*,*,#312,.T.);
#246=ORIENTED_EDGE('',*,*,#305,.F.);
#247=ORIENTED_EDGE('',*,*,#313,.T.);
#248=ORIENTED_EDGE('',*,*,#314,.F.);
#249=ORIENTED_EDGE('',*,*,#315,.F.);
#250=ORIENTED_EDGE('',*,*,#307,.F.);
#251=ORIENTED_EDGE('',*,*,#316,.T.);
#252=ORIENTED_EDGE('',*,*,#317,.F.);
#253=ORIENTED_EDGE('',*,*,#313,.F.);
#254=ORIENTED_EDGE('',*,*,#306,.F.);
#255=ORIENTED_EDGE('',*,*,#318,.T.);
#256=ORIENTED_EDGE('',*,*,#319,.F.);
#257=ORIENTED_EDGE('',*,*,#316,.F.);
#258=ORIENTED_EDGE('',*,*,#309,.F.);
#259=ORIENTED_EDGE('',*,*,#308,.T.);
#260=ORIENTED_EDGE('',*,*,#315,.T.);
#261=ORIENTED_EDGE('',*,*,#320,.T.);
#262=ORIENTED_EDGE('',*,*,#318,.F.);
#263=ORIENTED_EDGE('',*,*,#314,.T.);
#264=ORIENTED_EDGE('',*,*,#317,.T.);
#265=ORIENTED_EDGE('',*,*,#319,.T.);
#266=ORIENTED_EDGE('',*,*,#320,.F.);
#267=ORIENTED_EDGE('',*,*,#304,.T.);
#268=ORIENTED_EDGE('',*,*,#301,.T.);
#269=ORIENTED_EDGE('',*,*,#321,.T.);
#270=ORIENTED_EDGE('',*,*,#322,.T.);
#271=ORIENTED_EDGE('',*,*,#323,.T.);
#272=ORIENTED_EDGE('',*,*,#324,.T.);
#273=ORIENTED_EDGE('',*,*,#322,.F.);
#274=ORIENTED_EDGE('',*,*,#321,.F.);
#275=ORIENTED_EDGE('',*,*,#324,.F.);
#276=ORIENTED_EDGE('',*,*,#323,.F.);
#277=VERTEX_POINT('',#451);
#278=VERTEX_POINT('',#453);
#279=VERTEX_POINT('',#472);
#280=VERTEX_POINT('',#475);
#281=VERTEX_POINT('',#477);
#282=VERTEX_POINT('',#536);
#283=VERTEX_POINT('',#539);
#284=VERTEX_POINT('',#541);
#285=VERTEX_POINT('',#542);
#286=VERTEX_POINT('',#553);
#287=VERTEX_POINT('',#555);
#288=VERTEX_POINT('',#568);
#289=VERTEX_POINT('',#571);
#290=VERTEX_POINT('',#575);
#291=VERTEX_POINT('',#579);
#292=VERTEX_POINT('',#581);
#293=VERTEX_POINT('',#585);
#294=VERTEX_POINT('',#589);
#295=VERTEX_POINT('',#597);
#296=VERTEX_POINT('',#600);
#297=VERTEX_POINT('',#602);
#298=VERTEX_POINT('',#605);
#299=EDGE_CURVE('',#277,#277,#325,.T.);
#300=EDGE_CURVE('',#278,#278,#326,.T.);
#301=EDGE_CURVE('',#279,#279,#164,.T.);
#302=EDGE_CURVE('',#280,#280,#327,.T.);
#303=EDGE_CURVE('',#281,#281,#328,.T.);
#304=EDGE_CURVE('',#282,#282,#165,.T.);
#305=EDGE_CURVE('',#283,#283,#329,.T.);
#306=EDGE_CURVE('',#284,#285,#119,.T.);
#307=EDGE_CURVE('',#285,#286,#166,.T.);
#308=EDGE_CURVE('',#287,#286,#120,.T.);
#309=EDGE_CURVE('',#287,#284,#167,.T.);
#310=EDGE_CURVE('',#288,#288,#330,.T.);
#311=EDGE_CURVE('',#289,#289,#331,.T.);
#312=EDGE_CURVE('',#290,#290,#332,.T.);
#313=EDGE_CURVE('',#285,#291,#121,.T.);
#314=EDGE_CURVE('',#292,#291,#333,.T.);
#315=EDGE_CURVE('',#286,#292,#122,.T.);
#316=EDGE_CURVE('',#284,#293,#123,.T.);
#317=EDGE_CURVE('',#291,#293,#124,.T.);
#318=EDGE_CURVE('',#287,#294,#125,.T.);
#319=EDGE_CURVE('',#293,#294,#334,.T.);
#320=EDGE_CURVE('',#292,#294,#126,.T.);
#321=EDGE_CURVE('',#295,#295,#335,.T.);
#322=EDGE_CURVE('',#296,#296,#336,.T.);
#323=EDGE_CURVE('',#297,#297,#337,.T.);
#324=EDGE_CURVE('',#298,#298,#338,.T.);
#325=CIRCLE('',#340,31.0000000000001);
#326=CIRCLE('',#341,31.0000000000001);
#327=CIRCLE('',#343,21.0000000000001);
#328=CIRCLE('',#344,20.9999999999999);
#329=CIRCLE('',#346,31.0000000000001);
#330=CIRCLE('',#348,31.0000000000001);
#331=CIRCLE('',#350,29.5000000000001);
#332=CIRCLE('',#353,29.5000000000001);
#333=CIRCLE('',#356,2.5);
#334=CIRCLE('',#359,2.5);
#335=CIRCLE('',#364,18.5000000000001);
#336=CIRCLE('',#366,20.0000000000001);
#337=CIRCLE('',#367,20.0000000000001);
#338=CIRCLE('',#369,18.5000000000001);
#339=AXIS2_PLACEMENT_3D('',#449,#373,#374);
#340=AXIS2_PLACEMENT_3D('',#450,#375,#376);
#341=AXIS2_PLACEMENT_3D('',#452,#377,#378);
#342=AXIS2_PLACEMENT_3D('',#473,#379,#380);
#343=AXIS2_PLACEMENT_3D('',#474,#381,#382);
#344=AXIS2_PLACEMENT_3D('',#476,#383,#384);
#345=AXIS2_PLACEMENT_3D('',#537,#385,#386);
#346=AXIS2_PLACEMENT_3D('',#538,#387,#388);
#347=AXIS2_PLACEMENT_3D('',#566,#391,#392);
#348=AXIS2_PLACEMENT_3D('',#567,#393,#394);
#349=AXIS2_PLACEMENT_3D('',#569,#395,#396);
#350=AXIS2_PLACEMENT_3D('',#570,#397,#398);
#351=AXIS2_PLACEMENT_3D('',#572,#399,#400);
#352=AXIS2_PLACEMENT_3D('',#573,#401,#402);
#353=AXIS2_PLACEMENT_3D('',#574,#403,#404);
#354=AXIS2_PLACEMENT_3D('',#576,#405,#406);
#355=AXIS2_PLACEMENT_3D('',#577,#407,#408);
#356=AXIS2_PLACEMENT_3D('',#580,#410,#411);
#357=AXIS2_PLACEMENT_3D('',#583,#413,#414);
#358=AXIS2_PLACEMENT_3D('',#587,#417,#418);
#359=AXIS2_PLACEMENT_3D('',#590,#420,#421);
#360=AXIS2_PLACEMENT_3D('',#591,#422,#423);
#361=AXIS2_PLACEMENT_3D('',#593,#425,#426);
#362=AXIS2_PLACEMENT_3D('',#594,#427,#428);
#363=AXIS2_PLACEMENT_3D('',#595,#429,#430);
#364=AXIS2_PLACEMENT_3D('',#596,#431,#432);
#365=AXIS2_PLACEMENT_3D('',#598,#433,#434);
#366=AXIS2_PLACEMENT_3D('',#599,#435,#436);
#367=AXIS2_PLACEMENT_3D('',#601,#437,#438);
#368=AXIS2_PLACEMENT_3D('',#603,#439,#440);
#369=AXIS2_PLACEMENT_3D('',#604,#441,#442);
#370=AXIS2_PLACEMENT_3D('',#606,#443,#444);
#371=AXIS2_PLACEMENT_3D('',#607,#445,#446);
#372=AXIS2_PLACEMENT_3D('',#608,#447,#448);
#373=DIRECTION('',(0.,0.,1.));
#374=DIRECTION('',(1.,0.,0.));
#375=DIRECTION('',(1.,0.,0.));
#376=DIRECTION('',(0.,0.,-1.));
#377=DIRECTION('',(1.,0.,0.));
#378=DIRECTION('',(0.,0.,-1.));
#379=DIRECTION('',(1.,0.,0.));
#380=DIRECTION('',(0.,0.,-1.));
#381=DIRECTION('',(1.,0.,0.));
#382=DIRECTION('',(0.,0.,-1.));
#383=DIRECTION('',(1.,0.,0.));
#384=DIRECTION('',(0.,0.,-1.));
#385=DIRECTION('',(1.,0.,0.));
#386=DIRECTION('',(0.,0.,-1.));
#387=DIRECTION('',(1.,0.,0.));
#388=DIRECTION('',(0.,0.,-1.));
#389=DIRECTION('',(1.,0.,0.));
#390=DIRECTION('',(1.,0.,0.));
#391=DIRECTION('',(1.,0.,0.));
#392=DIRECTION('',(0.,0.,-1.));
#393=DIRECTION('',(1.,0.,0.));
#394=DIRECTION('',(0.,0.,-1.));
#395=DIRECTION('',(1.,0.,0.));
#396=DIRECTION('',(0.,0.,-1.));
#397=DIRECTION('',(1.,0.,0.));
#398=DIRECTION('',(0.,0.,-1.));
#399=DIRECTION('',(1.,0.,0.));
#400=DIRECTION('',(0.,0.,-1.));
#401=DIRECTION('',(1.,0.,0.));
#402=DIRECTION('',(0.,0.,-1.));
#403=DIRECTION('',(1.,0.,0.));
#404=DIRECTION('',(0.,0.,-1.));
#405=DIRECTION('',(1.,0.,0.));
#406=DIRECTION('',(0.,0.,-1.));
#407=DIRECTION('',(1.,0.,0.));
#408=DIRECTION('',(0.,0.,-1.));
#409=DIRECTION('',(0.,0.,-1.));
#410=DIRECTION('',(0.,0.,1.));
#411=DIRECTION('',(1.,0.,0.));
#412=DIRECTION('',(0.,0.,-1.));
#413=DIRECTION('',(0.,0.,-1.));
#414=DIRECTION('',(-1.,0.,0.));
#415=DIRECTION('',(0.,0.,-1.));
#416=DIRECTION('',(-1.,2.27248775352962E-015,0.));
#417=DIRECTION('',(-2.27248775352962E-015,-1.,0.));
#418=DIRECTION('',(1.,-2.27248775352962E-015,0.));
#419=DIRECTION('',(0.,0.,-1.));
#420=DIRECTION('',(0.,0.,1.));
#421=DIRECTION('',(1.,0.,0.));
#422=DIRECTION('',(0.,0.,-1.));
#423=DIRECTION('',(-1.,0.,0.));
#424=DIRECTION('',(-1.,2.23779328401008E-015,0.));
#425=DIRECTION('',(-2.23779328401008E-015,-1.,0.));
#426=DIRECTION('',(1.,-2.23779328401008E-015,0.));
#427=DIRECTION('',(0.,0.,1.));
#428=DIRECTION('',(1.,0.,0.));
#429=DIRECTION('',(0.,0.707106781186547,-0.707106781186548));
#430=DIRECTION('',(0.,0.707106781186547,0.707106781186547));
#431=DIRECTION('',(1.,0.,0.));
#432=DIRECTION('',(0.,0.,-1.));
#433=DIRECTION('',(1.,0.,0.));
#434=DIRECTION('',(0.,0.,-1.));
#435=DIRECTION('',(-1.,0.,0.));
#436=DIRECTION('',(0.,0.,-1.));
#437=DIRECTION('',(1.,0.,0.));
#438=DIRECTION('',(0.,0.,-1.));
#439=DIRECTION('',(1.,0.,0.));
#440=DIRECTION('',(0.,0.,-1.));
#441=DIRECTION('',(-1.,0.,0.));
#442=DIRECTION('',(0.,0.,-1.));
#443=DIRECTION('',(1.,0.,0.));
#444=DIRECTION('',(0.,0.,-1.));
#445=DIRECTION('',(-1.,0.,0.));
#446=DIRECTION('',(0.,0.,1.));
#447=DIRECTION('',(1.,0.,0.));
#448=DIRECTION('',(2.72113486427734E-017,0.,-1.));
#449=CARTESIAN_POINT('',(0.,0.,0.));
#450=CARTESIAN_POINT('',(-53.0495097567964,0.,0.));
#451=CARTESIAN_POINT('',(-53.0495097567964,0.,-31.0000000000001));
#452=CARTESIAN_POINT('',(-47.9504902432036,0.,0.));
#453=CARTESIAN_POINT('',(-47.9504902432036,0.,-31.0000000000001));
#454=CARTESIAN_POINT('',(-51.9127847054885,-22.1779984328997,20.5819575381234));
#455=CARTESIAN_POINT('',(-51.1839594992638,-22.395419590352,20.0282130947847));
#456=CARTESIAN_POINT('',(-50.7002440888263,-22.431174000484,19.8868537396996));
#457=CARTESIAN_POINT('',(-49.7843161375938,-22.3850047107519,20.0335468230065));
#458=CARTESIAN_POINT('',(-49.3704434907897,-22.3042711430756,20.3079050973292));
#459=CARTESIAN_POINT('',(-48.8266300599702,-21.9629084103588,20.9949521658844));
#460=CARTESIAN_POINT('',(-48.7010666730201,-21.6838208412915,21.3953264855858));
#461=CARTESIAN_POINT('',(-48.8362982043002,-20.9794487494923,21.9892724435511));
#462=CARTESIAN_POINT('',(-49.0863314798994,-20.5837819832077,22.177113328956));
#463=CARTESIAN_POINT('',(-49.8107429884398,-20.0310951512771,22.3944554054112));
#464=CARTESIAN_POINT('',(-50.2934692332267,-19.886801311108,22.4311829920358));
#465=CARTESIAN_POINT('',(-51.2154331463348,-20.0325589807895,22.3853230743059));
#466=CARTESIAN_POINT('',(-51.6296843268865,-20.3089193786059,22.3035449100818));
#467=CARTESIAN_POINT('',(-52.1702942541926,-20.990218226338,21.9654815633213));
#468=CARTESIAN_POINT('',(-52.2995675421751,-21.3921092907431,21.6875578491078));
#469=CARTESIAN_POINT('',(-52.1631645368789,-21.9920634929597,20.9762170602367));
#470=CARTESIAN_POINT('',(-51.9127847054885,-22.1779984328997,20.5819575381234));
#471=CARTESIAN_POINT('',(-51.1839594992638,-22.395419590352,20.0282130947847));
#472=CARTESIAN_POINT('',(-51.5483720208265,-22.2867090269841,20.3050853967516));
#473=CARTESIAN_POINT('',(-50.5,0.,0.));
#474=CARTESIAN_POINT('',(-37.5,0.,0.));
#475=CARTESIAN_POINT('',(-37.5,0.,-21.0000000000001));
#476=CARTESIAN_POINT('',(-122.5,0.,0.));
#477=CARTESIAN_POINT('',(-122.5,0.,-20.9999999999999));
#478=CARTESIAN_POINT('',(-50.5,-13.5601558425503,16.0350295767033));
#479=CARTESIAN_POINT('',(-50.3045123132771,-13.5601558425503,16.0350295767033));
#480=CARTESIAN_POINT('',(-50.1063303438558,-13.5860233452144,16.013249619308));
#481=CARTESIAN_POINT('',(-49.921880543965,-13.6352746049485,15.9712017847013));
#482=CARTESIAN_POINT('',(-49.7374462831619,-13.6845217154796,15.9291574924405));
#483=CARTESIAN_POINT('',(-49.5616588330188,-13.7584644693089,15.8656719291536));
#484=CARTESIAN_POINT('',(-49.4089542810272,-13.8501883748532,15.7851918575949));
#485=CARTESIAN_POINT('',(-49.2559160342198,-13.9421127183764,15.704535918439));
#486=CARTESIAN_POINT('',(-49.1218397690174,-14.0543852399226,15.6045442557299));
#487=CARTESIAN_POINT('',(-49.0177711894499,-14.1768273238236,15.492500347926));
#488=CARTESIAN_POINT('',(-48.9135537170514,-14.2994445878662,15.3802961368423));
#489=CARTESIAN_POINT('',(-48.8365585687514,-14.4356184521578,15.252853130319));
#490=CARTESIAN_POINT('',(-48.7932301875601,-14.5733796191696,15.1200729652859));
#491=CARTESIAN_POINT('',(-48.750004058243,-14.710815679701,14.9876061519256));
#492=CARTESIAN_POINT('',(-48.7390987189393,-14.8536123724247,14.8461444594007));
#493=CARTESIAN_POINT('',(-48.7614326838398,-14.9897865055203,14.7073553203464));
#494=CARTESIAN_POINT('',(-48.7837117206937,-15.1256257326037,14.5689075186374));
#495=CARTESIAN_POINT('',(-48.839668496453,-15.258625699021,14.4293186910333));
#496=CARTESIAN_POINT('',(-48.9246410488828,-15.3783236917318,14.3006000025285));
#497=CARTESIAN_POINT('',(-49.0097207405336,-15.4981726078798,14.1717190166747));
#498=CARTESIAN_POINT('',(-49.1262173911578,-15.6080209393685,14.050222806111));
#499=CARTESIAN_POINT('',(-49.2645433830107,-15.6997554757463,13.9469594536506));
#500=CARTESIAN_POINT('',(-49.4032882604409,-15.7917678071626,13.8433833940234));
#501=CARTESIAN_POINT('',(-49.5678295308068,-15.8681391785458,13.7553391578584));
#502=CARTESIAN_POINT('',(-49.744600775245,-15.9234451612285,13.6910150901));
#503=CARTESIAN_POINT('',(-49.9213879624922,-15.9787561318985,13.626685221023));
#504=CARTESIAN_POINT('',(-50.1153083374696,-16.0145559594855,13.584345867427));
#505=CARTESIAN_POINT('',(-50.3102342714364,-16.0283411167628,13.5680610643043));
#506=CARTESIAN_POINT('',(-50.5045739531062,-16.042084814292,13.5518252387755));
#507=CARTESIAN_POINT('',(-50.705277835786,-16.0343346706568,13.5610500300108));
#508=CARTESIAN_POINT('',(-50.8956830774142,-16.0056285793268,13.5948465890806));
#509=CARTESIAN_POINT('',(-51.0858202603674,-15.9769629013632,13.6285955682583));
#510=CARTESIAN_POINT('',(-51.2709193674772,-15.9266010188515,13.6877432921349));
#511=CARTESIAN_POINT('',(-51.4357720834542,-15.8580444463166,13.7667144351383));
#512=CARTESIAN_POINT('',(-51.6010191904664,-15.7893238601199,13.8458745074576));
#513=CARTESIAN_POINT('',(-51.7504758119692,-15.7003931468349,13.9470861999935));
#514=CARTESIAN_POINT('',(-51.8718718875256,-15.5976216086172,14.0610881568389));
#515=CARTESIAN_POINT('',(-51.9935666399291,-15.4945972164347,14.1753705984108));
#516=CARTESIAN_POINT('',(-52.0904180966714,-15.3747659870545,14.3056270827207));
#517=CARTESIAN_POINT('',(-52.1543612592199,-15.2472377151037,14.4402819245026));
#518=CARTESIAN_POINT('',(-52.2182215608811,-15.1198747009436,14.5747622735127));
#519=CARTESIAN_POINT('',(-52.2510136333,-14.9812788132909,14.7173254526883));
#520=CARTESIAN_POINT('',(-52.2499754290716,-14.8426836083024,14.8557983058411));
#521=CARTESIAN_POINT('',(-52.2489403558344,-14.7045063753847,14.9938535559087));
#522=CARTESIAN_POINT('',(-52.2142562264654,-14.5625226882009,15.1316491226365));
#523=CARTESIAN_POINT('',(-52.148826445846,-14.4288006305284,15.258103170593));
#524=CARTESIAN_POINT('',(-52.0833994774269,-14.2950843202877,15.3845517835));
#525=CARTESIAN_POINT('',(-51.9854455083196,-14.1659783871637,15.5031682366399));
#526=CARTESIAN_POINT('',(-51.8630488074773,-14.0528688435769,15.6050273074168));
#527=CARTESIAN_POINT('',(-51.7402854539154,-13.939420467967,15.7071915081936));
#528=CARTESIAN_POINT('',(-51.5895493556448,-13.8389803362842,15.7953583021436));
#529=CARTESIAN_POINT('',(-51.4232416358365,-13.7607667782224,15.8632057817885));
#530=CARTESIAN_POINT('',(-51.256702917021,-13.6824445826644,15.9311475005973));
#531=CARTESIAN_POINT('',(-51.0699321339476,-13.624294118422,15.9806264219447));
#532=CARTESIAN_POINT('',(-50.8784261932849,-13.5918534954746,16.0081703688321));
#533=CARTESIAN_POINT('',(-50.7545479934598,-13.5708688411186,16.025987542256));
#534=CARTESIAN_POINT('',(-50.6269000227706,-13.5601558425503,16.0350295767033));
#535=CARTESIAN_POINT('',(-50.5,-13.5601558425503,16.0350295767033));
#536=CARTESIAN_POINT('',(-50.5,-13.5601558425503,16.0350295767033));
#537=CARTESIAN_POINT('',(-160.,0.,0.));
#538=CARTESIAN_POINT('',(-121.,0.,0.));
#539=CARTESIAN_POINT('',(-121.,0.,-31.0000000000001));
#540=CARTESIAN_POINT('',(-160.,2.50000000000015,30.8990291109608));
#541=CARTESIAN_POINT('',(-92.5,2.5,30.8990291109608));
#542=CARTESIAN_POINT('',(-67.5,2.49999999999994,30.8990291109608));
#543=CARTESIAN_POINT('',(-67.5,2.5,30.8990291109608));
#544=CARTESIAN_POINT('',(-66.8474441539732,2.5,30.8990291109608));
#545=CARTESIAN_POINT('',(-66.1986845919993,2.23439869166902,30.9229079719444));
#546=CARTESIAN_POINT('',(-65.2650990478019,1.30045262823997,30.9762424757487));
#547=CARTESIAN_POINT('',(-64.9997447142579,0.651801923656633,31.0000205875584));
#548=CARTESIAN_POINT('',(-65.000255668664,-0.653758762478416,30.999979381561));
#549=CARTESIAN_POINT('',(-65.2710466605325,-1.30648272484852,30.9759004149701));
#550=CARTESIAN_POINT('',(-66.193044381655,-2.22867608941441,30.9232324719933));
#551=CARTESIAN_POINT('',(-66.8396030810607,-2.5,30.8990291109608));
#552=CARTESIAN_POINT('',(-67.5,-2.5,30.8990291109608));
#553=CARTESIAN_POINT('',(-67.5,-2.50000000000006,30.8990291109608));
#554=CARTESIAN_POINT('',(-160.,-2.49999999999985,30.8990291109608));
#555=CARTESIAN_POINT('',(-92.5,-2.49999999999985,30.8990291109608));
#556=CARTESIAN_POINT('',(-92.5,-2.50000000000006,30.8990291109608));
#557=CARTESIAN_POINT('',(-93.1602176669328,-2.50000000000007,30.8990291109608));
#558=CARTESIAN_POINT('',(-93.8067694660859,-2.2288270630973,30.9232228405268));
#559=CARTESIAN_POINT('',(-94.7290045227731,-1.30646674360513,30.975902336654));
#560=CARTESIAN_POINT('',(-95.000503713654,-0.65885094498145,31.0000406220572));
#561=CARTESIAN_POINT('',(-94.9994948292916,0.662668082862471,30.9999592604386));
#562=CARTESIAN_POINT('',(-94.7277851463309,1.30843453783921,30.9758113627703));
#563=CARTESIAN_POINT('',(-93.8051142635505,2.22973190251651,30.9231496805328));
#564=CARTESIAN_POINT('',(-93.1523787223284,2.49999999999994,30.8990291109608));
#565=CARTESIAN_POINT('',(-92.5,2.49999999999994,30.8990291109608));
#566=CARTESIAN_POINT('',(-160.,0.,0.));
#567=CARTESIAN_POINT('',(-39.,0.,0.));
#568=CARTESIAN_POINT('',(-39.,0.,-31.0000000000001));
#569=CARTESIAN_POINT('',(-160.,0.,0.));
#570=CARTESIAN_POINT('',(-37.5,0.,0.));
#571=CARTESIAN_POINT('',(-37.5,0.,-29.5000000000001));
#572=CARTESIAN_POINT('',(-39.,0.,0.));
#573=CARTESIAN_POINT('',(-37.5,25.2500000000001,0.));
#574=CARTESIAN_POINT('',(-122.5,0.,0.));
#575=CARTESIAN_POINT('',(-122.5,0.,-29.5000000000001));
#576=CARTESIAN_POINT('',(-122.5,25.25,0.));
#577=CARTESIAN_POINT('',(-121.,0.,0.));
#578=CARTESIAN_POINT('',(-67.5,2.49999999999994,35.));
#579=CARTESIAN_POINT('',(-67.5,2.49999999999994,28.));
#580=CARTESIAN_POINT('',(-67.5,0.,28.));
#581=CARTESIAN_POINT('',(-67.5,-2.50000000000006,28.));
#582=CARTESIAN_POINT('',(-67.5,-2.50000000000006,35.));
#583=CARTESIAN_POINT('',(-67.5,0.,35.));
#584=CARTESIAN_POINT('',(-92.5,2.5,35.));
#585=CARTESIAN_POINT('',(-92.5,2.5,28.));
#586=CARTESIAN_POINT('',(-67.5,2.49999999999994,28.));
#587=CARTESIAN_POINT('',(-67.5,2.49999999999994,35.));
#588=CARTESIAN_POINT('',(-92.5,-2.50000000000006,35.));
#589=CARTESIAN_POINT('',(-92.5,-2.50000000000006,28.));
#590=CARTESIAN_POINT('',(-92.5,-5.68E-014,28.));
#591=CARTESIAN_POINT('',(-92.5,-5.68E-014,35.));
#592=CARTESIAN_POINT('',(-67.5,-2.50000000000006,28.));
#593=CARTESIAN_POINT('',(-67.5,-2.50000000000006,35.));
#594=CARTESIAN_POINT('',(-67.5,0.,28.));
#595=CARTESIAN_POINT('',(-50.5,-24.7487373415291,24.7487373415292));
#596=CARTESIAN_POINT('',(0.,0.,0.));
#597=CARTESIAN_POINT('',(0.,0.,-18.5000000000001));
#598=CARTESIAN_POINT('',(0.,10.,0.));
#599=CARTESIAN_POINT('',(-1.5,0.,0.));
#600=CARTESIAN_POINT('',(-1.5,0.,-20.0000000000001));
#601=CARTESIAN_POINT('',(-158.5,0.,0.));
#602=CARTESIAN_POINT('',(-158.5,0.,-20.0000000000001));
#603=CARTESIAN_POINT('',(-160.,0.,0.));
#604=CARTESIAN_POINT('',(-160.,0.,0.));
#605=CARTESIAN_POINT('',(-160.,0.,-18.5000000000001));
#606=CARTESIAN_POINT('',(-160.,10.,0.));
#607=CARTESIAN_POINT('',(0.,0.,0.));
#608=CARTESIAN_POINT('',(-158.5,0.,0.));
#609=(
GEOMETRIC_REPRESENTATION_CONTEXT(3)
GLOBAL_UNCERTAINTY_ASSIGNED_CONTEXT((#610))
GLOBAL_UNIT_ASSIGNED_CONTEXT((#616,#612,#611))
REPRESENTATION_CONTEXT('SCI4010','TOP_LEVEL_ASSEMBLY_PART')
);
#610=UNCERTAINTY_MEASURE_WITH_UNIT(LENGTH_MEASURE(0.02),#616,
'DISTANCE_ACCURACY_VALUE','Maximum Tolerance applied to model');
#611=(
NAMED_UNIT(*)
SI_UNIT($,.STERADIAN.)
SOLID_ANGLE_UNIT()
);
#612=(
CONVERSION_BASED_UNIT('DEGREE',#614)
NAMED_UNIT(#613)
PLANE_ANGLE_UNIT()
);
#613=DIMENSIONAL_EXPONENTS(0.,0.,0.,0.,0.,0.,0.);
#614=PLANE_ANGLE_MEASURE_WITH_UNIT(PLANE_ANGLE_MEASURE(0.0174532925),#615);
#615=(
NAMED_UNIT(*)
PLANE_ANGLE_UNIT()
SI_UNIT($,.RADIAN.)
);
#616=(
LENGTH_UNIT()
NAMED_UNIT(*)
SI_UNIT(.MILLI.,.METRE.)
);
ENDSEC;
END-ISO-10303-21;
