ISO-10303-21;
HEADER;
/* Generated by software containing ST-Developer
 * from STEP Tools, Inc. (www.steptools.com) 
 */

FILE_DESCRIPTION(
/* description */ (''),
/* implementation_level */ '2;1');

FILE_NAME(
/* name */ 'SCI2510',
/* time_stamp */ '2007-10-26T13:18:15+08:00',
/* author */ (''),
/* organization */ (''),
/* preprocessor_version */ 'ST-DEVELOPER v9',
/* originating_system */ 'EDS PLM SOLUTIONS - UNIGRAPHICS NX 1.0',
/* authorisation */ '');

FILE_SCHEMA (('CONFIG_CONTROL_DESIGN'));
ENDSEC;

DATA;
#10=SHAPE_REPRESENTATION_RELATIONSHIP('none',
'relationship between FANNDA0400hg-none and FANNDA0400hg-none',#94,#11);
#11=ADVANCED_BREP_SHAPE_REPRESENTATION('FANNDA0400hg-none',(#97,#98),#609);
#12=CC_DESIGN_APPROVAL(#24,(#82));
#13=CC_DESIGN_APPROVAL(#25,(#84));
#14=CC_DESIGN_APPROVAL(#26,(#31));
#15=APPROVAL_PERSON_ORGANIZATION(#69,#24,#18);
#16=APPROVAL_PERSON_ORGANIZATION(#70,#25,#19);
#17=APPROVAL_PERSON_ORGANIZATION(#71,#26,#20);
#18=APPROVAL_ROLE('approver');
#19=APPROVAL_ROLE('approver');
#20=APPROVAL_ROLE('approver');
#21=APPROVAL_DATE_TIME(#39,#24);
#22=APPROVAL_DATE_TIME(#40,#25);
#23=APPROVAL_DATE_TIME(#41,#26);
#24=APPROVAL(#27,' ');
#25=APPROVAL(#28,' ');
#26=APPROVAL(#29,' ');
#27=APPROVAL_STATUS('not_yet_approved');
#28=APPROVAL_STATUS('not_yet_approved');
#29=APPROVAL_STATUS('not_yet_approved');
#30=CC_DESIGN_SECURITY_CLASSIFICATION(#31,(#84));
#31=SECURITY_CLASSIFICATION(' ',' ',#32);
#32=SECURITY_CLASSIFICATION_LEVEL('confidential');
#33=CC_DESIGN_DATE_AND_TIME_ASSIGNMENT(#37,#35,(#82));
#34=CC_DESIGN_DATE_AND_TIME_ASSIGNMENT(#38,#36,(#31));
#35=DATE_TIME_ROLE('creation_date');
#36=DATE_TIME_ROLE('classification_date');
#37=DATE_AND_TIME(#52,#42);
#38=DATE_AND_TIME(#53,#43);
#39=DATE_AND_TIME(#54,#44);
#40=DATE_AND_TIME(#55,#45);
#41=DATE_AND_TIME(#56,#46);
#42=LOCAL_TIME(0,0,0.,#47);
#43=LOCAL_TIME(0,0,0.,#48);
#44=LOCAL_TIME(0,0,0.,#49);
#45=LOCAL_TIME(0,0,0.,#50);
#46=LOCAL_TIME(0,0,0.,#51);
#47=COORDINATED_UNIVERSAL_TIME_OFFSET(0,0,.BEHIND.);
#48=COORDINATED_UNIVERSAL_TIME_OFFSET(0,0,.BEHIND.);
#49=COORDINATED_UNIVERSAL_TIME_OFFSET(0,0,.BEHIND.);
#50=COORDINATED_UNIVERSAL_TIME_OFFSET(0,0,.BEHIND.);
#51=COORDINATED_UNIVERSAL_TIME_OFFSET(0,0,.BEHIND.);
#52=CALENDAR_DATE(0,1,1);
#53=CALENDAR_DATE(0,1,1);
#54=CALENDAR_DATE(0,1,1);
#55=CALENDAR_DATE(0,1,1);
#56=CALENDAR_DATE(0,1,1);
#57=CC_DESIGN_PERSON_AND_ORGANIZATION_ASSIGNMENT(#65,#61,(#82,#84));
#58=CC_DESIGN_PERSON_AND_ORGANIZATION_ASSIGNMENT(#66,#62,(#86));
#59=CC_DESIGN_PERSON_AND_ORGANIZATION_ASSIGNMENT(#67,#63,(#84));
#60=CC_DESIGN_PERSON_AND_ORGANIZATION_ASSIGNMENT(#68,#64,(#31));
#61=PERSON_AND_ORGANIZATION_ROLE('creator');
#62=PERSON_AND_ORGANIZATION_ROLE('design_owner');
#63=PERSON_AND_ORGANIZATION_ROLE('design_supplier');
#64=PERSON_AND_ORGANIZATION_ROLE('classification_officer');
#65=PERSON_AND_ORGANIZATION(#79,#72);
#66=PERSON_AND_ORGANIZATION(#79,#73);
#67=PERSON_AND_ORGANIZATION(#79,#74);
#68=PERSON_AND_ORGANIZATION(#79,#75);
#69=PERSON_AND_ORGANIZATION(#79,#76);
#70=PERSON_AND_ORGANIZATION(#79,#77);
#71=PERSON_AND_ORGANIZATION(#79,#78);
#72=ORGANIZATION(' ',' ',' ');
#73=ORGANIZATION(' ',' ',' ');
#74=ORGANIZATION(' ',' ',' ');
#75=ORGANIZATION(' ',' ',' ');
#76=ORGANIZATION(' ',' ',' ');
#77=ORGANIZATION(' ',' ',' ');
#78=ORGANIZATION(' ',' ',' ');
#79=PERSON(' ',' ',' ',(' '),$,$);
#80=SHAPE_DEFINITION_REPRESENTATION(#81,#94);
#81=PRODUCT_DEFINITION_SHAPE('','',#82);
#82=PRODUCT_DEFINITION(' ','',#84,#83);
#83=DESIGN_CONTEXT('',#93,'design');
#84=PRODUCT_DEFINITION_FORMATION_WITH_SPECIFIED_SOURCE(' ',' ',#86,.NOT_KNOWN.);
#85=PRODUCT_RELATED_PRODUCT_CATEGORY('detail','',(#86));
#86=PRODUCT('FANNDA0400hg','FANNDA0400hg',' ',(#91));
#87=PRODUCT_CATEGORY_RELATIONSHIP(' ',' ',#89,#90);
#88=PRODUCT_CATEGORY_RELATIONSHIP('','',#90,#85);
#89=PRODUCT_CATEGORY('part',' ');
#90=PRODUCT_CATEGORY(' ','');
#91=MECHANICAL_CONTEXT(' ',#93,'mechanical');
#92=APPLICATION_PROTOCOL_DEFINITION('international standard',
'config_control_design',1994,#93);
#93=APPLICATION_CONTEXT(
'configuration controlled 3D designs of mechanical parts and assemblies
');
#94=SHAPE_REPRESENTATION('FANNDA0400hg-none',(#339),#609);
#95=CONICAL_SURFACE('',#371,12.5,45.);
#96=CONICAL_SURFACE('',#372,11.5,45.);
#97=MANIFOLD_SOLID_BREP('',#99);
#98=MANIFOLD_SOLID_BREP('',#100);
#99=CLOSED_SHELL('',(#138,#139,#140,#141,#142,#143,#144,#145,#146,#147,#148,
#149,#150,#151));
#100=CLOSED_SHELL('',(#152,#153,#154,#155,#156));
#101=PLANE('',#349);
#102=PLANE('',#355);
#103=PLANE('',#358);
#104=PLANE('',#361);
#105=PLANE('',#362);
#106=PLANE('',#365);
#107=PLANE('',#367);
#108=FACE_OUTER_BOUND('',#200,.T.);
#109=FACE_OUTER_BOUND('',#209,.T.);
#110=FACE_OUTER_BOUND('',#210,.T.);
#111=FACE_OUTER_BOUND('',#211,.T.);
#112=FACE_OUTER_BOUND('',#212,.T.);
#113=FACE_OUTER_BOUND('',#213,.T.);
#114=FACE_OUTER_BOUND('',#214,.T.);
#115=FACE_OUTER_BOUND('',#217,.T.);
#116=FACE_OUTER_BOUND('',#218,.T.);
#117=FACE_OUTER_BOUND('',#222,.T.);
#118=FACE_OUTER_BOUND('',#223,.T.);
#119=LINE('',#540,#127);
#120=LINE('',#554,#128);
#121=LINE('',#578,#129);
#122=LINE('',#582,#130);
#123=LINE('',#584,#131);
#124=LINE('',#586,#132);
#125=LINE('',#588,#133);
#126=LINE('',#592,#134);
#127=VECTOR('',#389,1.);
#128=VECTOR('',#390,1.);
#129=VECTOR('',#409,1.);
#130=VECTOR('',#412,1.);
#131=VECTOR('',#415,1.);
#132=VECTOR('',#416,1.);
#133=VECTOR('',#419,1.);
#134=VECTOR('',#424,1.);
#135=TOROIDAL_SURFACE('',#345,25.6249999999998,3.62499999999988);
#136=TOROIDAL_SURFACE('',#350,21.5,1.5);
#137=TOROIDAL_SURFACE('',#354,21.5,1.5);
#138=ADVANCED_FACE('',(#168,#169,#170),#157,.F.);
#139=ADVANCED_FACE('',(#171,#172,#173),#135,.F.);
#140=ADVANCED_FACE('',(#174,#175,#176),#158,.T.);
#141=ADVANCED_FACE('',(#108,#177),#101,.F.);
#142=ADVANCED_FACE('',(#178,#179),#136,.T.);
#143=ADVANCED_FACE('',(#180,#181),#159,.T.);
#144=ADVANCED_FACE('',(#182,#183),#137,.T.);
#145=ADVANCED_FACE('',(#184,#109),#102,.F.);
#146=ADVANCED_FACE('',(#110),#160,.F.);
#147=ADVANCED_FACE('',(#111),#103,.F.);
#148=ADVANCED_FACE('',(#112),#161,.F.);
#149=ADVANCED_FACE('',(#113),#104,.T.);
#150=ADVANCED_FACE('',(#114),#105,.T.);
#151=ADVANCED_FACE('',(#185,#186),#162,.F.);
#152=ADVANCED_FACE('',(#115),#106,.T.);
#153=ADVANCED_FACE('',(#116),#107,.F.);
#154=ADVANCED_FACE('',(#187,#188),#163,.T.);
#155=ADVANCED_FACE('',(#189,#117),#95,.T.);
#156=ADVANCED_FACE('',(#118,#190),#96,.T.);
#157=CYLINDRICAL_SURFACE('',#342,13.5000000000001);
#158=CYLINDRICAL_SURFACE('',#347,23.);
#159=CYLINDRICAL_SURFACE('',#352,23.);
#160=CYLINDRICAL_SURFACE('',#357,2.5);
#161=CYLINDRICAL_SURFACE('',#360,2.5);
#162=CYLINDRICAL_SURFACE('',#363,1.75);
#163=CYLINDRICAL_SURFACE('',#370,12.5);
#164=B_SPLINE_CURVE_WITH_KNOTS('',3,(#454,#455,#456,#457,#458,#459,#460,
#461,#462,#463,#464,#465,#466,#467,#468,#469,#470,#471,#472,#473,#474,#475,
#476,#477,#478,#479,#480,#481,#482,#483,#484,#485,#486,#487,#488,#489,#490,
#491,#492,#493,#494,#495,#496,#497,#498,#499,#500,#501,#502,#503,#504,#505,
#506,#507,#508,#509,#510,#511),.UNSPECIFIED.,.T.,.F.,(1,3,3,3,3,3,3,3,3,
3,3,3,3,3,3,3,3,3,3,3,3,1),(-0.0361528918565196,0.,0.0533969141801301,0.106774647576364,
0.160439725525299,0.214304469669519,0.267861250340323,0.321086953216771,
0.37446630334487,0.428247750779414,0.482059256272414,0.535472305035674,0.588682832317294,
0.642199673758669,0.696055276953474,0.749755734549815,0.803052805444665,
0.856323287193276,0.909981043508346,0.96384710814348,1.,1.05339691418013),
.UNSPECIFIED.);
#165=B_SPLINE_CURVE_WITH_KNOTS('',3,(#518,#519,#520,#521,#522,#523,#524,
#525,#526,#527,#528,#529,#530,#531,#532,#533,#534,#535),.UNSPECIFIED.,.T.,
.F.,(2,2,2,2,2,2,2,2,2,2,2),(-0.125,0.,0.125,0.25,0.374999999999999,0.499999999999999,
0.625,0.75,0.875,1.,1.125),.UNSPECIFIED.);
#166=B_SPLINE_CURVE_WITH_KNOTS('',3,(#543,#544,#545,#546,#547,#548,#549,
#550,#551,#552),.UNSPECIFIED.,.F.,.F.,(4,2,2,2,4),(0.,0.25,0.5,0.75,1.),
.UNSPECIFIED.);
#167=B_SPLINE_CURVE_WITH_KNOTS('',3,(#556,#557,#558,#559,#560,#561,#562,
#563,#564,#565),.UNSPECIFIED.,.F.,.F.,(4,2,2,2,4),(0.,0.25,0.5,0.75,1.),
.UNSPECIFIED.);
#168=FACE_BOUND('',#191,.T.);
#169=FACE_BOUND('',#192,.T.);
#170=FACE_BOUND('',#193,.T.);
#171=FACE_BOUND('',#194,.T.);
#172=FACE_BOUND('',#195,.T.);
#173=FACE_BOUND('',#196,.T.);
#174=FACE_BOUND('',#197,.T.);
#175=FACE_BOUND('',#198,.T.);
#176=FACE_BOUND('',#199,.T.);
#177=FACE_BOUND('',#201,.T.);
#178=FACE_BOUND('',#202,.T.);
#179=FACE_BOUND('',#203,.T.);
#180=FACE_BOUND('',#204,.T.);
#181=FACE_BOUND('',#205,.T.);
#182=FACE_BOUND('',#206,.T.);
#183=FACE_BOUND('',#207,.T.);
#184=FACE_BOUND('',#208,.T.);
#185=FACE_BOUND('',#215,.T.);
#186=FACE_BOUND('',#216,.T.);
#187=FACE_BOUND('',#219,.T.);
#188=FACE_BOUND('',#220,.T.);
#189=FACE_BOUND('',#221,.T.);
#190=FACE_BOUND('',#224,.T.);
#191=EDGE_LOOP('',(#225));
#192=EDGE_LOOP('',(#226));
#193=EDGE_LOOP('',(#227));
#194=EDGE_LOOP('',(#228));
#195=EDGE_LOOP('',(#229));
#196=EDGE_LOOP('',(#230));
#197=EDGE_LOOP('',(#231));
#198=EDGE_LOOP('',(#232));
#199=EDGE_LOOP('',(#233,#234,#235,#236));
#200=EDGE_LOOP('',(#237));
#201=EDGE_LOOP('',(#238));
#202=EDGE_LOOP('',(#239));
#203=EDGE_LOOP('',(#240));
#204=EDGE_LOOP('',(#241));
#205=EDGE_LOOP('',(#242));
#206=EDGE_LOOP('',(#243));
#207=EDGE_LOOP('',(#244));
#208=EDGE_LOOP('',(#245));
#209=EDGE_LOOP('',(#246));
#210=EDGE_LOOP('',(#247,#248,#249,#250));
#211=EDGE_LOOP('',(#251,#252,#253,#254));
#212=EDGE_LOOP('',(#255,#256,#257,#258));
#213=EDGE_LOOP('',(#259,#260,#261,#262));
#214=EDGE_LOOP('',(#263,#264,#265,#266));
#215=EDGE_LOOP('',(#267));
#216=EDGE_LOOP('',(#268));
#217=EDGE_LOOP('',(#269));
#218=EDGE_LOOP('',(#270));
#219=EDGE_LOOP('',(#271));
#220=EDGE_LOOP('',(#272));
#221=EDGE_LOOP('',(#273));
#222=EDGE_LOOP('',(#274));
#223=EDGE_LOOP('',(#275));
#224=EDGE_LOOP('',(#276));
#225=ORIENTED_EDGE('',*,*,#299,.T.);
#226=ORIENTED_EDGE('',*,*,#300,.F.);
#227=ORIENTED_EDGE('',*,*,#301,.F.);
#228=ORIENTED_EDGE('',*,*,#302,.T.);
#229=ORIENTED_EDGE('',*,*,#303,.F.);
#230=ORIENTED_EDGE('',*,*,#304,.F.);
#231=ORIENTED_EDGE('',*,*,#302,.F.);
#232=ORIENTED_EDGE('',*,*,#305,.T.);
#233=ORIENTED_EDGE('',*,*,#306,.F.);
#234=ORIENTED_EDGE('',*,*,#307,.T.);
#235=ORIENTED_EDGE('',*,*,#308,.T.);
#236=ORIENTED_EDGE('',*,*,#309,.T.);
#237=ORIENTED_EDGE('',*,*,#310,.F.);
#238=ORIENTED_EDGE('',*,*,#300,.T.);
#239=ORIENTED_EDGE('',*,*,#310,.T.);
#240=ORIENTED_EDGE('',*,*,#305,.F.);
#241=ORIENTED_EDGE('',*,*,#303,.T.);
#242=ORIENTED_EDGE('',*,*,#311,.F.);
#243=ORIENTED_EDGE('',*,*,#311,.T.);
#244=ORIENTED_EDGE('',*,*,#312,.F.);
#245=ORIENTED_EDGE('',*,*,#299,.F.);
#246=ORIENTED_EDGE('',*,*,#312,.T.);
#247=ORIENTED_EDGE('',*,*,#313,.T.);
#248=ORIENTED_EDGE('',*,*,#314,.F.);
#249=ORIENTED_EDGE('',*,*,#315,.F.);
#250=ORIENTED_EDGE('',*,*,#307,.F.);
#251=ORIENTED_EDGE('',*,*,#306,.T.);
#252=ORIENTED_EDGE('',*,*,#316,.T.);
#253=ORIENTED_EDGE('',*,*,#317,.T.);
#254=ORIENTED_EDGE('',*,*,#313,.F.);
#255=ORIENTED_EDGE('',*,*,#318,.T.);
#256=ORIENTED_EDGE('',*,*,#319,.F.);
#257=ORIENTED_EDGE('',*,*,#316,.F.);
#258=ORIENTED_EDGE('',*,*,#309,.F.);
#259=ORIENTED_EDGE('',*,*,#315,.T.);
#260=ORIENTED_EDGE('',*,*,#320,.F.);
#261=ORIENTED_EDGE('',*,*,#318,.F.);
#262=ORIENTED_EDGE('',*,*,#308,.F.);
#263=ORIENTED_EDGE('',*,*,#314,.T.);
#264=ORIENTED_EDGE('',*,*,#317,.F.);
#265=ORIENTED_EDGE('',*,*,#319,.T.);
#266=ORIENTED_EDGE('',*,*,#320,.T.);
#267=ORIENTED_EDGE('',*,*,#304,.T.);
#268=ORIENTED_EDGE('',*,*,#301,.T.);
#269=ORIENTED_EDGE('',*,*,#321,.T.);
#270=ORIENTED_EDGE('',*,*,#322,.T.);
#271=ORIENTED_EDGE('',*,*,#323,.T.);
#272=ORIENTED_EDGE('',*,*,#324,.T.);
#273=ORIENTED_EDGE('',*,*,#321,.F.);
#274=ORIENTED_EDGE('',*,*,#323,.F.);
#275=ORIENTED_EDGE('',*,*,#324,.F.);
#276=ORIENTED_EDGE('',*,*,#322,.F.);
#277=VERTEX_POINT('',#451);
#278=VERTEX_POINT('',#453);
#279=VERTEX_POINT('',#512);
#280=VERTEX_POINT('',#515);
#281=VERTEX_POINT('',#517);
#282=VERTEX_POINT('',#536);
#283=VERTEX_POINT('',#539);
#284=VERTEX_POINT('',#541);
#285=VERTEX_POINT('',#542);
#286=VERTEX_POINT('',#553);
#287=VERTEX_POINT('',#555);
#288=VERTEX_POINT('',#568);
#289=VERTEX_POINT('',#572);
#290=VERTEX_POINT('',#575);
#291=VERTEX_POINT('',#579);
#292=VERTEX_POINT('',#581);
#293=VERTEX_POINT('',#585);
#294=VERTEX_POINT('',#589);
#295=VERTEX_POINT('',#597);
#296=VERTEX_POINT('',#600);
#297=VERTEX_POINT('',#603);
#298=VERTEX_POINT('',#605);
#299=EDGE_CURVE('',#277,#277,#325,.T.);
#300=EDGE_CURVE('',#278,#278,#326,.T.);
#301=EDGE_CURVE('',#279,#279,#164,.T.);
#302=EDGE_CURVE('',#280,#280,#327,.T.);
#303=EDGE_CURVE('',#281,#281,#328,.T.);
#304=EDGE_CURVE('',#282,#282,#165,.T.);
#305=EDGE_CURVE('',#283,#283,#329,.T.);
#306=EDGE_CURVE('',#284,#285,#119,.T.);
#307=EDGE_CURVE('',#284,#286,#166,.T.);
#308=EDGE_CURVE('',#286,#287,#120,.T.);
#309=EDGE_CURVE('',#287,#285,#167,.T.);
#310=EDGE_CURVE('',#288,#288,#330,.T.);
#311=EDGE_CURVE('',#289,#289,#331,.T.);
#312=EDGE_CURVE('',#290,#290,#332,.T.);
#313=EDGE_CURVE('',#284,#291,#121,.T.);
#314=EDGE_CURVE('',#292,#291,#333,.T.);
#315=EDGE_CURVE('',#286,#292,#122,.T.);
#316=EDGE_CURVE('',#285,#293,#123,.T.);
#317=EDGE_CURVE('',#293,#291,#124,.T.);
#318=EDGE_CURVE('',#287,#294,#125,.T.);
#319=EDGE_CURVE('',#293,#294,#334,.T.);
#320=EDGE_CURVE('',#294,#292,#126,.T.);
#321=EDGE_CURVE('',#295,#295,#335,.T.);
#322=EDGE_CURVE('',#296,#296,#336,.T.);
#323=EDGE_CURVE('',#297,#297,#337,.T.);
#324=EDGE_CURVE('',#298,#298,#338,.T.);
#325=CIRCLE('',#340,13.5000000000002);
#326=CIRCLE('',#341,13.5000000000001);
#327=CIRCLE('',#343,23.);
#328=CIRCLE('',#344,23.);
#329=CIRCLE('',#346,23.);
#330=CIRCLE('',#348,21.5);
#331=CIRCLE('',#351,23.);
#332=CIRCLE('',#353,21.5);
#333=CIRCLE('',#356,2.5);
#334=CIRCLE('',#359,2.5);
#335=CIRCLE('',#364,11.5);
#336=CIRCLE('',#366,11.5);
#337=CIRCLE('',#368,12.5);
#338=CIRCLE('',#369,12.5);
#339=AXIS2_PLACEMENT_3D('',#449,#373,#374);
#340=AXIS2_PLACEMENT_3D('',#450,#375,#376);
#341=AXIS2_PLACEMENT_3D('',#452,#377,#378);
#342=AXIS2_PLACEMENT_3D('',#513,#379,#380);
#343=AXIS2_PLACEMENT_3D('',#514,#381,#382);
#344=AXIS2_PLACEMENT_3D('',#516,#383,#384);
#345=AXIS2_PLACEMENT_3D('',#537,#385,#386);
#346=AXIS2_PLACEMENT_3D('',#538,#387,#388);
#347=AXIS2_PLACEMENT_3D('',#566,#391,#392);
#348=AXIS2_PLACEMENT_3D('',#567,#393,#394);
#349=AXIS2_PLACEMENT_3D('',#569,#395,#396);
#350=AXIS2_PLACEMENT_3D('',#570,#397,#398);
#351=AXIS2_PLACEMENT_3D('',#571,#399,#400);
#352=AXIS2_PLACEMENT_3D('',#573,#401,#402);
#353=AXIS2_PLACEMENT_3D('',#574,#403,#404);
#354=AXIS2_PLACEMENT_3D('',#576,#405,#406);
#355=AXIS2_PLACEMENT_3D('',#577,#407,#408);
#356=AXIS2_PLACEMENT_3D('',#580,#410,#411);
#357=AXIS2_PLACEMENT_3D('',#583,#413,#414);
#358=AXIS2_PLACEMENT_3D('',#587,#417,#418);
#359=AXIS2_PLACEMENT_3D('',#590,#420,#421);
#360=AXIS2_PLACEMENT_3D('',#591,#422,#423);
#361=AXIS2_PLACEMENT_3D('',#593,#425,#426);
#362=AXIS2_PLACEMENT_3D('',#594,#427,#428);
#363=AXIS2_PLACEMENT_3D('',#595,#429,#430);
#364=AXIS2_PLACEMENT_3D('',#596,#431,#432);
#365=AXIS2_PLACEMENT_3D('',#598,#433,#434);
#366=AXIS2_PLACEMENT_3D('',#599,#435,#436);
#367=AXIS2_PLACEMENT_3D('',#601,#437,#438);
#368=AXIS2_PLACEMENT_3D('',#602,#439,#440);
#369=AXIS2_PLACEMENT_3D('',#604,#441,#442);
#370=AXIS2_PLACEMENT_3D('',#606,#443,#444);
#371=AXIS2_PLACEMENT_3D('',#607,#445,#446);
#372=AXIS2_PLACEMENT_3D('',#608,#447,#448);
#373=DIRECTION('',(0.,0.,1.));
#374=DIRECTION('',(1.,0.,0.));
#375=DIRECTION('',(1.,0.,0.));
#376=DIRECTION('',(0.,0.,-1.));
#377=DIRECTION('',(1.,0.,0.));
#378=DIRECTION('',(0.,0.,-1.));
#379=DIRECTION('',(1.,0.,0.));
#380=DIRECTION('',(0.,0.,-1.));
#381=DIRECTION('',(1.,0.,0.));
#382=DIRECTION('',(0.,0.,-1.));
#383=DIRECTION('',(1.,0.,0.));
#384=DIRECTION('',(0.,0.,-1.));
#385=DIRECTION('',(1.,0.,0.));
#386=DIRECTION('',(0.,0.,-1.));
#387=DIRECTION('',(1.,0.,0.));
#388=DIRECTION('',(0.,0.,-1.));
#389=DIRECTION('',(1.,0.,0.));
#390=DIRECTION('',(1.,0.,0.));
#391=DIRECTION('',(1.,0.,0.));
#392=DIRECTION('',(0.,0.,-1.));
#393=DIRECTION('',(1.,0.,0.));
#394=DIRECTION('',(0.,0.,-1.));
#395=DIRECTION('',(1.,0.,0.));
#396=DIRECTION('',(0.,0.,-1.));
#397=DIRECTION('',(1.,0.,0.));
#398=DIRECTION('',(0.,0.,-1.));
#399=DIRECTION('',(1.,0.,0.));
#400=DIRECTION('',(0.,0.,-1.));
#401=DIRECTION('',(1.,0.,0.));
#402=DIRECTION('',(0.,0.,-1.));
#403=DIRECTION('',(1.,0.,0.));
#404=DIRECTION('',(0.,0.,-1.));
#405=DIRECTION('',(1.,0.,0.));
#406=DIRECTION('',(0.,0.,-1.));
#407=DIRECTION('',(-1.,0.,0.));
#408=DIRECTION('',(0.,0.,1.));
#409=DIRECTION('',(0.,0.,-1.));
#410=DIRECTION('',(0.,0.,1.));
#411=DIRECTION('',(1.,0.,0.));
#412=DIRECTION('',(0.,0.,-1.));
#413=DIRECTION('',(0.,0.,-1.));
#414=DIRECTION('',(-1.,0.,0.));
#415=DIRECTION('',(0.,0.,-1.));
#416=DIRECTION('',(-1.,0.,0.));
#417=DIRECTION('',(0.,-1.,0.));
#418=DIRECTION('',(0.,0.,-1.));
#419=DIRECTION('',(0.,0.,-1.));
#420=DIRECTION('',(0.,0.,1.));
#421=DIRECTION('',(1.,0.,0.));
#422=DIRECTION('',(0.,0.,-1.));
#423=DIRECTION('',(-1.,0.,0.));
#424=DIRECTION('',(-1.,-2.27248775352961E-015,0.));
#425=DIRECTION('',(2.27248775352961E-015,-1.,0.));
#426=DIRECTION('',(1.,2.27248775352962E-015,0.));
#427=DIRECTION('',(0.,0.,1.));
#428=DIRECTION('',(1.,0.,0.));
#429=DIRECTION('',(0.,0.707106781186547,-0.707106781186548));
#430=DIRECTION('',(0.,0.707106781186547,0.707106781186547));
#431=DIRECTION('',(-1.,0.,0.));
#432=DIRECTION('',(0.,0.,1.));
#433=DIRECTION('',(-1.,0.,0.));
#434=DIRECTION('',(0.,0.,1.));
#435=DIRECTION('',(1.,0.,0.));
#436=DIRECTION('',(0.,0.,1.));
#437=DIRECTION('',(-1.,0.,0.));
#438=DIRECTION('',(0.,0.,1.));
#439=DIRECTION('',(1.,0.,0.));
#440=DIRECTION('',(0.,0.,1.));
#441=DIRECTION('',(-1.,0.,0.));
#442=DIRECTION('',(0.,0.,1.));
#443=DIRECTION('',(1.,0.,0.));
#444=DIRECTION('',(0.,0.,-1.));
#445=DIRECTION('',(1.,0.,0.));
#446=DIRECTION('',(0.,0.,-1.));
#447=DIRECTION('',(-1.,0.,0.));
#448=DIRECTION('',(5.48800308761817E-017,0.,1.));
#449=CARTESIAN_POINT('',(0.,0.,0.));
#450=CARTESIAN_POINT('',(-27.4999999999999,0.,0.));
#451=CARTESIAN_POINT('',(-27.4999999999999,0.,-13.5000000000002));
#452=CARTESIAN_POINT('',(-112.5,0.,0.));
#453=CARTESIAN_POINT('',(-112.5,0.,-13.5000000000001));
#454=CARTESIAN_POINT('',(-40.5,-8.22796064174489,10.7028343758978));
#455=CARTESIAN_POINT('',(-40.3050515314614,-8.22796064174489,10.7028343758978));
#456=CARTESIAN_POINT('',(-40.1074184556299,-8.25483743121036,10.6823143172445));
#457=CARTESIAN_POINT('',(-39.9235034826932,-8.30580680221505,10.6425360400743));
#458=CARTESIAN_POINT('',(-39.7396260948339,-8.35676575705992,10.6027658920391));
#459=CARTESIAN_POINT('',(-39.5643985866657,-8.43313337994579,10.5426295459556));
#460=CARTESIAN_POINT('',(-39.4120403695865,-8.5273709629705,10.4658465715818));
#461=CARTESIAN_POINT('',(-39.2588751338618,-8.62210770835124,10.3886568892985));
#462=CARTESIAN_POINT('',(-39.124595588068,-8.73744420314396,10.2924515743669));
#463=CARTESIAN_POINT('',(-39.0201816346272,-8.86251617222593,10.1836048183851));
#464=CARTESIAN_POINT('',(-38.9154023162471,-8.98802579270301,10.074377186217));
#465=CARTESIAN_POINT('',(-38.8378154418981,-9.12677883770032,9.94930406505533));
#466=CARTESIAN_POINT('',(-38.7940123049802,-9.26618011979274,9.81773425936763));
#467=CARTESIAN_POINT('',(-38.7504575353139,-9.40479098558778,9.68691046488657));
#468=CARTESIAN_POINT('',(-38.7391152205795,-9.54785905550527,9.54600099347761));
#469=CARTESIAN_POINT('',(-38.7609634244684,-9.68323611281663,9.40664331116298));
#470=CARTESIAN_POINT('',(-38.7826817446839,-9.81780837768014,9.26811408540148));
#471=CARTESIAN_POINT('',(-38.837766130124,-9.94849486418666,9.12733234579949));
#472=CARTESIAN_POINT('',(-38.921586848748,-10.065347244941,8.99659851492561));
#473=CARTESIAN_POINT('',(-39.0056546857089,-10.1825441272276,8.86547925754383));
#474=CARTESIAN_POINT('',(-39.1209024861596,-10.2890970933604,8.74092103833132));
#475=CARTESIAN_POINT('',(-39.2579250213416,-10.3777653069803,8.63434926518721));
#476=CARTESIAN_POINT('',(-39.3959512077924,-10.4670829901563,8.52699688398332));
#477=CARTESIAN_POINT('',(-39.5598966720546,-10.5407848233999,8.43500318432771));
#478=CARTESIAN_POINT('',(-39.7363336228092,-10.594186884005,8.36738933400259));
#479=CARTESIAN_POINT('',(-39.9128405434497,-10.6476101223513,8.29974866994388));
#480=CARTESIAN_POINT('',(-40.1067788072162,-10.6822406914405,8.2547099492885));
#481=CARTESIAN_POINT('',(-40.301923517921,-10.6959184998613,8.2369489159717));
#482=CARTESIAN_POINT('',(-40.4956513605614,-10.7094969991598,8.21931683844778));
#483=CARTESIAN_POINT('',(-40.6959234661257,-10.7028154584242,8.22809943443301));
#484=CARTESIAN_POINT('',(-40.88604632855,-10.6762853249054,8.26238050813525));
#485=CARTESIAN_POINT('',(-41.0754904844432,-10.6498498994856,8.29653920419011));
#486=CARTESIAN_POINT('',(-41.2600528758039,-10.6029729076143,8.3568894033162));
#487=CARTESIAN_POINT('',(-41.4247336505656,-10.538519955401,8.43739279337034));
#488=CARTESIAN_POINT('',(-41.5903550983517,-10.4736988414908,8.51835602682455));
#489=CARTESIAN_POINT('',(-41.7404228084692,-10.3892692705928,8.62185025634483));
#490=CARTESIAN_POINT('',(-41.8627725785217,-10.2906438188051,8.73800033156847));
#491=CARTESIAN_POINT('',(-41.9858673171773,-10.1914178520756,8.85485762642355));
#492=CARTESIAN_POINT('',(-42.0842986197728,-10.0749895363384,8.98771091800876));
#493=CARTESIAN_POINT('',(-42.1498122176026,-9.94970294594071,9.12433073093812));
#494=CARTESIAN_POINT('',(-42.2151329609859,-9.824785165635,9.26054837181055));
#495=CARTESIAN_POINT('',(-42.2495153923042,-9.68753466567577,9.40425958640927));
#496=CARTESIAN_POINT('',(-42.2499947672662,-9.54896716460661,9.54291496814616));
#497=CARTESIAN_POINT('',(-42.2504706424665,-9.41141130008558,9.68055807174656));
#498=CARTESIAN_POINT('',(-42.2175631685155,-9.26877135245188,9.81701144915306));
#499=CARTESIAN_POINT('',(-42.1540707322868,-9.13331262674438,9.94145866873443));
#500=CARTESIAN_POINT('',(-42.0906001564437,-8.9979005393477,10.0658630412561));
#501=CARTESIAN_POINT('',(-41.99486372227,-8.86599527929987,10.1817256668317));
#502=CARTESIAN_POINT('',(-41.8747323436519,-8.74947643804942,10.2808881941212));
#503=CARTESIAN_POINT('',(-41.7537438967965,-8.63212630193649,10.3807581889636));
#504=CARTESIAN_POINT('',(-41.6046833192117,-8.52721556145201,10.4665064384411));
#505=CARTESIAN_POINT('',(-41.4396953887648,-8.44478701109981,10.532595707477));
#506=CARTESIAN_POINT('',(-41.2741039668899,-8.36205695430753,10.5989267172708));
#507=CARTESIAN_POINT('',(-41.0878438552166,-8.29976246526561,10.6473450834781));
#508=CARTESIAN_POINT('',(-40.8964012328435,-8.26427380849972,10.6748198307114));
#509=CARTESIAN_POINT('',(-40.7668972143949,-8.24026701417381,10.6934055047293));
#510=CARTESIAN_POINT('',(-40.6330152030666,-8.2279606417449,10.7028343758978));
#511=CARTESIAN_POINT('',(-40.5,-8.22796064174489,10.7028343758978));
#512=CARTESIAN_POINT('',(-40.5,-8.22796064174489,10.7028343758978));
#513=CARTESIAN_POINT('',(-140.,0.,0.));
#514=CARTESIAN_POINT('',(-43.,0.,0.));
#515=CARTESIAN_POINT('',(-43.,0.,-23.));
#516=CARTESIAN_POINT('',(-38.,0.,0.));
#517=CARTESIAN_POINT('',(-38.,0.,-23.));
#518=CARTESIAN_POINT('',(-42.0175414225254,-16.4590619464332,15.0704540146542));
#519=CARTESIAN_POINT('',(-41.3517710860475,-16.7038142672186,14.4492482423909));
#520=CARTESIAN_POINT('',(-40.8896696625334,-16.7501615958322,14.2493000963381));
#521=CARTESIAN_POINT('',(-39.9599452418787,-16.7378250417804,14.2935102404689));
#522=CARTESIAN_POINT('',(-39.5179845841794,-16.6793312078951,14.5333875479278));
#523=CARTESIAN_POINT('',(-38.905895975432,-16.3986063031383,15.1938459687629));
#524=CARTESIAN_POINT('',(-38.7322635446121,-16.1615808729596,15.6038352115538));
#525=CARTESIAN_POINT('',(-38.7707041651246,-15.484855801551,16.2463913589592));
#526=CARTESIAN_POINT('',(-38.9806697244404,-15.0736052476617,16.4575297309795));
#527=CARTESIAN_POINT('',(-39.6430583838243,-14.4526060287601,16.7027789289886));
#528=CARTESIAN_POINT('',(-40.1032520806031,-14.2500517175928,16.7499511620236));
#529=CARTESIAN_POINT('',(-41.0398212998425,-14.2924193961694,16.7381301280077));
#530=CARTESIAN_POINT('',(-41.482112315868,-14.5341234233075,16.6788721949079));
#531=CARTESIAN_POINT('',(-42.0913721700658,-15.1902696396118,16.4002720065189));
#532=CARTESIAN_POINT('',(-42.2680313875412,-15.6009309424001,16.1647470749271));
#533=CARTESIAN_POINT('',(-42.2289647326497,-16.2498983487546,15.4810547284608));
#534=CARTESIAN_POINT('',(-42.0175414225254,-16.4590619464332,15.0704540146542));
#535=CARTESIAN_POINT('',(-41.3517710860475,-16.7038142672186,14.4492482423909));
#536=CARTESIAN_POINT('',(-41.6846562541191,-16.5814381068616,14.7598511286602));
#537=CARTESIAN_POINT('',(-40.5,0.,0.));
#538=CARTESIAN_POINT('',(-111.,0.,0.));
#539=CARTESIAN_POINT('',(-111.,0.,-23.));
#540=CARTESIAN_POINT('',(-140.,-2.5,22.8637267303473));
#541=CARTESIAN_POINT('',(-82.5000000000001,-2.5,22.8637267303473));
#542=CARTESIAN_POINT('',(-57.5000000000001,-2.5,22.8637267303473));
#543=CARTESIAN_POINT('',(-82.5000000000001,-2.50000000000006,22.8637267303473));
#544=CARTESIAN_POINT('',(-83.1609257528222,-2.50000000000006,22.8637267303473));
#545=CARTESIAN_POINT('',(-83.8070132508413,-2.22856151404233,22.8964446919603));
#546=CARTESIAN_POINT('',(-84.7286773942721,-1.30681564576113,22.9674965728061));
#547=CARTESIAN_POINT('',(-85.0004932013712,-0.659138639968877,23.0000536088299));
#548=CARTESIAN_POINT('',(-84.9995054028878,0.662874601819942,22.9999462394591));
#549=CARTESIAN_POINT('',(-84.7276093368539,1.30861267572556,22.9673862789622));
#550=CARTESIAN_POINT('',(-83.8052801220971,2.22956370071953,22.8963391249903));
#551=CARTESIAN_POINT('',(-83.1526295801731,2.49999999999994,22.8637267303473));
#552=CARTESIAN_POINT('',(-82.5000000000001,2.49999999999994,22.8637267303473));
#553=CARTESIAN_POINT('',(-82.5000000000001,2.49999999999994,22.8637267303473));
#554=CARTESIAN_POINT('',(-140.,2.49999999999981,22.8637267303473));
#555=CARTESIAN_POINT('',(-57.5000000000001,2.49999999999981,22.8637267303473));
#556=CARTESIAN_POINT('',(-57.5000000000001,2.5,22.8637267303473));
#557=CARTESIAN_POINT('',(-56.8472136717118,2.5,22.8637267303473));
#558=CARTESIAN_POINT('',(-56.1984542205273,2.2342041320936,22.8960165105645));
#559=CARTESIAN_POINT('',(-55.2651934903597,1.30051120118078,22.9679757656505));
#560=CARTESIAN_POINT('',(-54.9997600406523,0.651959033263777,23.000026082536));
#561=CARTESIAN_POINT('',(-55.0002402975391,-0.653798030989727,22.999973880704));
#562=CARTESIAN_POINT('',(-55.271054756592,-1.30647116465364,22.9675201559855));
#563=CARTESIAN_POINT('',(-56.1929609262477,-2.22861227266371,22.896443749146));
#564=CARTESIAN_POINT('',(-56.8389155064938,-2.5,22.8637267303473));
#565=CARTESIAN_POINT('',(-57.5000000000001,-2.5,22.8637267303473));
#566=CARTESIAN_POINT('',(-140.,0.,0.));
#567=CARTESIAN_POINT('',(-112.5,0.,0.));
#568=CARTESIAN_POINT('',(-112.5,0.,-21.5));
#569=CARTESIAN_POINT('',(-112.5,17.5,0.));
#570=CARTESIAN_POINT('',(-111.,0.,0.));
#571=CARTESIAN_POINT('',(-28.9999999999999,0.,0.));
#572=CARTESIAN_POINT('',(-28.9999999999999,0.,-23.));
#573=CARTESIAN_POINT('',(-140.,0.,0.));
#574=CARTESIAN_POINT('',(-27.4999999999999,0.,0.));
#575=CARTESIAN_POINT('',(-27.4999999999999,0.,-21.5));
#576=CARTESIAN_POINT('',(-28.9999999999999,0.,0.));
#577=CARTESIAN_POINT('',(-27.4999999999999,17.5000000000001,0.));
#578=CARTESIAN_POINT('',(-82.5000000000001,-2.5,35.));
#579=CARTESIAN_POINT('',(-82.5000000000001,-2.5,20.));
#580=CARTESIAN_POINT('',(-82.5000000000001,-5.68E-014,20.));
#581=CARTESIAN_POINT('',(-82.5000000000001,2.49999999999994,20.));
#582=CARTESIAN_POINT('',(-82.5000000000001,2.49999999999994,35.));
#583=CARTESIAN_POINT('',(-82.5000000000001,-5.68E-014,35.));
#584=CARTESIAN_POINT('',(-57.5000000000001,-2.5,35.));
#585=CARTESIAN_POINT('',(-57.5000000000001,-2.5,20.));
#586=CARTESIAN_POINT('',(-57.5000000000001,-2.5,20.));
#587=CARTESIAN_POINT('',(-57.5000000000001,-2.5,35.));
#588=CARTESIAN_POINT('',(-57.5000000000001,2.5,35.));
#589=CARTESIAN_POINT('',(-57.5000000000001,2.5,20.));
#590=CARTESIAN_POINT('',(-57.5000000000001,0.,20.));
#591=CARTESIAN_POINT('',(-57.5000000000001,0.,35.));
#592=CARTESIAN_POINT('',(-57.5000000000001,2.5,20.));
#593=CARTESIAN_POINT('',(-57.5000000000001,2.5,35.));
#594=CARTESIAN_POINT('',(-82.5000000000001,-5.68E-014,20.));
#595=CARTESIAN_POINT('',(-40.5,-24.7487373415292,24.7487373415292));
#596=CARTESIAN_POINT('',(-140.,0.,0.));
#597=CARTESIAN_POINT('',(-140.,0.,11.5));
#598=CARTESIAN_POINT('',(-140.,6.25,0.));
#599=CARTESIAN_POINT('',(-5.685E-014,0.,0.));
#600=CARTESIAN_POINT('',(-5.685E-014,0.,11.5));
#601=CARTESIAN_POINT('',(-5.685E-014,6.25,0.));
#602=CARTESIAN_POINT('',(-139.,0.,0.));
#603=CARTESIAN_POINT('',(-139.,0.,12.5));
#604=CARTESIAN_POINT('',(-1.00000000000006,0.,0.));
#605=CARTESIAN_POINT('',(-1.00000000000006,0.,12.5));
#606=CARTESIAN_POINT('',(-140.,0.,0.));
#607=CARTESIAN_POINT('',(-139.,0.,0.));
#608=CARTESIAN_POINT('',(-5.55111512312578E-014,0.,0.));
#609=(
GEOMETRIC_REPRESENTATION_CONTEXT(3)
GLOBAL_UNCERTAINTY_ASSIGNED_CONTEXT((#610))
GLOBAL_UNIT_ASSIGNED_CONTEXT((#616,#612,#611))
REPRESENTATION_CONTEXT('SCI2510','TOP_LEVEL_ASSEMBLY_PART')
);
#610=UNCERTAINTY_MEASURE_WITH_UNIT(LENGTH_MEASURE(0.02),#616,
'DISTANCE_ACCURACY_VALUE','Maximum Tolerance applied to model');
#611=(
NAMED_UNIT(*)
SI_UNIT($,.STERADIAN.)
SOLID_ANGLE_UNIT()
);
#612=(
CONVERSION_BASED_UNIT('DEGREE',#614)
NAMED_UNIT(#613)
PLANE_ANGLE_UNIT()
);
#613=DIMENSIONAL_EXPONENTS(0.,0.,0.,0.,0.,0.,0.);
#614=PLANE_ANGLE_MEASURE_WITH_UNIT(PLANE_ANGLE_MEASURE(0.0174532925),#615);
#615=(
NAMED_UNIT(*)
PLANE_ANGLE_UNIT()
SI_UNIT($,.RADIAN.)
);
#616=(
LENGTH_UNIT()
NAMED_UNIT(*)
SI_UNIT(.MILLI.,.METRE.)
);
ENDSEC;
END-ISO-10303-21;
