ISO-10303-21;
HEADER;
/* Generated by software containing ST-Developer
 * from STEP Tools, Inc. (www.steptools.com) 
 */

FILE_DESCRIPTION(
/* description */ (''),
/* implementation_level */ '2;1');

FILE_NAME(
/* name */ 'SCI1605',
/* time_stamp */ '2007-10-26T13:16:27+08:00',
/* author */ (''),
/* organization */ (''),
/* preprocessor_version */ 'ST-DEVELOPER v9',
/* originating_system */ 'EDS PLM SOLUTIONS - UNIGRAPHICS NX 1.0',
/* authorisation */ '');

FILE_SCHEMA (('CONFIG_CONTROL_DESIGN'));
ENDSEC;

DATA;
#10=SHAPE_REPRESENTATION_RELATIONSHIP('none',
'relationship between FANNDA0400h9-none and FANNDA0400h9-none',#94,#11);
#11=ADVANCED_BREP_SHAPE_REPRESENTATION('FANNDA0400h9-none',(#97,#98),#569);
#12=CC_DESIGN_APPROVAL(#24,(#82));
#13=CC_DESIGN_APPROVAL(#25,(#84));
#14=CC_DESIGN_APPROVAL(#26,(#31));
#15=APPROVAL_PERSON_ORGANIZATION(#69,#24,#18);
#16=APPROVAL_PERSON_ORGANIZATION(#70,#25,#19);
#17=APPROVAL_PERSON_ORGANIZATION(#71,#26,#20);
#18=APPROVAL_ROLE('approver');
#19=APPROVAL_ROLE('approver');
#20=APPROVAL_ROLE('approver');
#21=APPROVAL_DATE_TIME(#39,#24);
#22=APPROVAL_DATE_TIME(#40,#25);
#23=APPROVAL_DATE_TIME(#41,#26);
#24=APPROVAL(#27,' ');
#25=APPROVAL(#28,' ');
#26=APPROVAL(#29,' ');
#27=APPROVAL_STATUS('not_yet_approved');
#28=APPROVAL_STATUS('not_yet_approved');
#29=APPROVAL_STATUS('not_yet_approved');
#30=CC_DESIGN_SECURITY_CLASSIFICATION(#31,(#84));
#31=SECURITY_CLASSIFICATION(' ',' ',#32);
#32=SECURITY_CLASSIFICATION_LEVEL('confidential');
#33=CC_DESIGN_DATE_AND_TIME_ASSIGNMENT(#37,#35,(#82));
#34=CC_DESIGN_DATE_AND_TIME_ASSIGNMENT(#38,#36,(#31));
#35=DATE_TIME_ROLE('creation_date');
#36=DATE_TIME_ROLE('classification_date');
#37=DATE_AND_TIME(#52,#42);
#38=DATE_AND_TIME(#53,#43);
#39=DATE_AND_TIME(#54,#44);
#40=DATE_AND_TIME(#55,#45);
#41=DATE_AND_TIME(#56,#46);
#42=LOCAL_TIME(0,0,0.,#47);
#43=LOCAL_TIME(0,0,0.,#48);
#44=LOCAL_TIME(0,0,0.,#49);
#45=LOCAL_TIME(0,0,0.,#50);
#46=LOCAL_TIME(0,0,0.,#51);
#47=COORDINATED_UNIVERSAL_TIME_OFFSET(0,0,.BEHIND.);
#48=COORDINATED_UNIVERSAL_TIME_OFFSET(0,0,.BEHIND.);
#49=COORDINATED_UNIVERSAL_TIME_OFFSET(0,0,.BEHIND.);
#50=COORDINATED_UNIVERSAL_TIME_OFFSET(0,0,.BEHIND.);
#51=COORDINATED_UNIVERSAL_TIME_OFFSET(0,0,.BEHIND.);
#52=CALENDAR_DATE(0,1,1);
#53=CALENDAR_DATE(0,1,1);
#54=CALENDAR_DATE(0,1,1);
#55=CALENDAR_DATE(0,1,1);
#56=CALENDAR_DATE(0,1,1);
#57=CC_DESIGN_PERSON_AND_ORGANIZATION_ASSIGNMENT(#65,#61,(#82,#84));
#58=CC_DESIGN_PERSON_AND_ORGANIZATION_ASSIGNMENT(#66,#62,(#86));
#59=CC_DESIGN_PERSON_AND_ORGANIZATION_ASSIGNMENT(#67,#63,(#84));
#60=CC_DESIGN_PERSON_AND_ORGANIZATION_ASSIGNMENT(#68,#64,(#31));
#61=PERSON_AND_ORGANIZATION_ROLE('creator');
#62=PERSON_AND_ORGANIZATION_ROLE('design_owner');
#63=PERSON_AND_ORGANIZATION_ROLE('design_supplier');
#64=PERSON_AND_ORGANIZATION_ROLE('classification_officer');
#65=PERSON_AND_ORGANIZATION(#79,#72);
#66=PERSON_AND_ORGANIZATION(#79,#73);
#67=PERSON_AND_ORGANIZATION(#79,#74);
#68=PERSON_AND_ORGANIZATION(#79,#75);
#69=PERSON_AND_ORGANIZATION(#79,#76);
#70=PERSON_AND_ORGANIZATION(#79,#77);
#71=PERSON_AND_ORGANIZATION(#79,#78);
#72=ORGANIZATION(' ',' ',' ');
#73=ORGANIZATION(' ',' ',' ');
#74=ORGANIZATION(' ',' ',' ');
#75=ORGANIZATION(' ',' ',' ');
#76=ORGANIZATION(' ',' ',' ');
#77=ORGANIZATION(' ',' ',' ');
#78=ORGANIZATION(' ',' ',' ');
#79=PERSON(' ',' ',' ',(' '),$,$);
#80=SHAPE_DEFINITION_REPRESENTATION(#81,#94);
#81=PRODUCT_DEFINITION_SHAPE('','',#82);
#82=PRODUCT_DEFINITION(' ','',#84,#83);
#83=DESIGN_CONTEXT('',#93,'design');
#84=PRODUCT_DEFINITION_FORMATION_WITH_SPECIFIED_SOURCE(' ',' ',#86,.NOT_KNOWN.);
#85=PRODUCT_RELATED_PRODUCT_CATEGORY('detail','',(#86));
#86=PRODUCT('FANNDA0400h9','FANNDA0400h9',' ',(#91));
#87=PRODUCT_CATEGORY_RELATIONSHIP(' ',' ',#89,#90);
#88=PRODUCT_CATEGORY_RELATIONSHIP('','',#90,#85);
#89=PRODUCT_CATEGORY('part',' ');
#90=PRODUCT_CATEGORY(' ','');
#91=MECHANICAL_CONTEXT(' ',#93,'mechanical');
#92=APPLICATION_PROTOCOL_DEFINITION('international standard',
'config_control_design',1994,#93);
#93=APPLICATION_CONTEXT(
'configuration controlled 3D designs of mechanical parts and assemblies
');
#94=SHAPE_REPRESENTATION('FANNDA0400h9-none',(#339),#569);
#95=CONICAL_SURFACE('',#371,7.,45.0000000000004);
#96=CONICAL_SURFACE('',#372,8.,45.);
#97=MANIFOLD_SOLID_BREP('',#99);
#98=MANIFOLD_SOLID_BREP('',#100);
#99=CLOSED_SHELL('',(#142,#143,#144,#145,#146,#147,#148,#149,#150,#151,#152,
#153,#154,#155));
#100=CLOSED_SHELL('',(#156,#157,#158,#159,#160));
#101=PLANE('',#352);
#102=PLANE('',#354);
#103=PLANE('',#358);
#104=PLANE('',#361);
#105=PLANE('',#362);
#106=PLANE('',#365);
#107=PLANE('',#367);
#108=FACE_OUTER_BOUND('',#204,.T.);
#109=FACE_OUTER_BOUND('',#206,.T.);
#110=FACE_OUTER_BOUND('',#210,.T.);
#111=FACE_OUTER_BOUND('',#211,.T.);
#112=FACE_OUTER_BOUND('',#212,.T.);
#113=FACE_OUTER_BOUND('',#213,.T.);
#114=FACE_OUTER_BOUND('',#214,.T.);
#115=FACE_OUTER_BOUND('',#217,.T.);
#116=FACE_OUTER_BOUND('',#218,.T.);
#117=FACE_OUTER_BOUND('',#221,.T.);
#118=FACE_OUTER_BOUND('',#224,.T.);
#119=LINE('',#500,#127);
#120=LINE('',#514,#128);
#121=LINE('',#538,#129);
#122=LINE('',#542,#130);
#123=LINE('',#544,#131);
#124=LINE('',#546,#132);
#125=LINE('',#548,#133);
#126=LINE('',#552,#134);
#127=VECTOR('',#389,1.);
#128=VECTOR('',#390,1.);
#129=VECTOR('',#409,1.);
#130=VECTOR('',#412,1.);
#131=VECTOR('',#415,1.);
#132=VECTOR('',#416,1.);
#133=VECTOR('',#419,1.);
#134=VECTOR('',#424,1.);
#135=CYLINDRICAL_SURFACE('',#345,8.99999999999999);
#136=CYLINDRICAL_SURFACE('',#347,15.);
#137=CYLINDRICAL_SURFACE('',#349,15.);
#138=CYLINDRICAL_SURFACE('',#357,2.5);
#139=CYLINDRICAL_SURFACE('',#360,2.5);
#140=CYLINDRICAL_SURFACE('',#363,1.75);
#141=CYLINDRICAL_SURFACE('',#370,8.);
#142=ADVANCED_FACE('',(#168,#169,#170),#161,.F.);
#143=ADVANCED_FACE('',(#171,#172,#173),#135,.F.);
#144=ADVANCED_FACE('',(#174,#175,#176),#136,.T.);
#145=ADVANCED_FACE('',(#177,#178),#137,.T.);
#146=ADVANCED_FACE('',(#179,#180),#162,.T.);
#147=ADVANCED_FACE('',(#108,#181),#101,.T.);
#148=ADVANCED_FACE('',(#109,#182),#102,.F.);
#149=ADVANCED_FACE('',(#183,#184),#163,.T.);
#150=ADVANCED_FACE('',(#110),#138,.F.);
#151=ADVANCED_FACE('',(#111),#103,.T.);
#152=ADVANCED_FACE('',(#112),#139,.F.);
#153=ADVANCED_FACE('',(#113),#104,.F.);
#154=ADVANCED_FACE('',(#114),#105,.T.);
#155=ADVANCED_FACE('',(#185,#186),#140,.F.);
#156=ADVANCED_FACE('',(#115),#106,.F.);
#157=ADVANCED_FACE('',(#116),#107,.T.);
#158=ADVANCED_FACE('',(#187,#188),#141,.T.);
#159=ADVANCED_FACE('',(#117,#189),#95,.T.);
#160=ADVANCED_FACE('',(#190,#118),#96,.T.);
#161=TOROIDAL_SURFACE('',#342,17.7044847632686,3.75);
#162=TOROIDAL_SURFACE('',#351,13.5,1.5);
#163=TOROIDAL_SURFACE('',#355,14.,1.);
#164=B_SPLINE_CURVE_WITH_KNOTS('',3,(#454,#455,#456,#457,#458,#459,#460,
#461,#462,#463,#464,#465,#466,#467,#468,#469,#470,#471),.UNSPECIFIED.,.T.,
.F.,(2,2,2,2,2,2,2,2,2,2,2),(-0.125,0.,0.125,0.25,0.375,0.5,0.625,0.75,0.875,
1.,1.125),.UNSPECIFIED.);
#165=B_SPLINE_CURVE_WITH_KNOTS('',3,(#478,#479,#480,#481,#482,#483,#484,
#485,#486,#487,#488,#489,#490,#491,#492,#493,#494,#495),.UNSPECIFIED.,.T.,
.F.,(2,2,2,2,2,2,2,2,2,2,2),(-0.125,0.,0.125,0.25,0.375,0.5,0.625,0.75,0.875,
1.,1.125),.UNSPECIFIED.);
#166=B_SPLINE_CURVE_WITH_KNOTS('',3,(#503,#504,#505,#506,#507,#508,#509,
#510,#511,#512),.UNSPECIFIED.,.F.,.F.,(4,2,2,2,4),(0.,0.25,0.5,0.75,1.),
.UNSPECIFIED.);
#167=B_SPLINE_CURVE_WITH_KNOTS('',3,(#516,#517,#518,#519,#520,#521,#522,
#523,#524,#525),.UNSPECIFIED.,.F.,.F.,(4,2,2,2,4),(0.,0.25,0.5,0.75,1.),
.UNSPECIFIED.);
#168=FACE_BOUND('',#191,.T.);
#169=FACE_BOUND('',#192,.T.);
#170=FACE_BOUND('',#193,.T.);
#171=FACE_BOUND('',#194,.T.);
#172=FACE_BOUND('',#195,.T.);
#173=FACE_BOUND('',#196,.T.);
#174=FACE_BOUND('',#197,.T.);
#175=FACE_BOUND('',#198,.T.);
#176=FACE_BOUND('',#199,.T.);
#177=FACE_BOUND('',#200,.T.);
#178=FACE_BOUND('',#201,.T.);
#179=FACE_BOUND('',#202,.T.);
#180=FACE_BOUND('',#203,.T.);
#181=FACE_BOUND('',#205,.T.);
#182=FACE_BOUND('',#207,.T.);
#183=FACE_BOUND('',#208,.T.);
#184=FACE_BOUND('',#209,.T.);
#185=FACE_BOUND('',#215,.T.);
#186=FACE_BOUND('',#216,.T.);
#187=FACE_BOUND('',#219,.T.);
#188=FACE_BOUND('',#220,.T.);
#189=FACE_BOUND('',#222,.T.);
#190=FACE_BOUND('',#223,.T.);
#191=EDGE_LOOP('',(#225));
#192=EDGE_LOOP('',(#226));
#193=EDGE_LOOP('',(#227));
#194=EDGE_LOOP('',(#228));
#195=EDGE_LOOP('',(#229));
#196=EDGE_LOOP('',(#230));
#197=EDGE_LOOP('',(#231));
#198=EDGE_LOOP('',(#232));
#199=EDGE_LOOP('',(#233,#234,#235,#236));
#200=EDGE_LOOP('',(#237));
#201=EDGE_LOOP('',(#238));
#202=EDGE_LOOP('',(#239));
#203=EDGE_LOOP('',(#240));
#204=EDGE_LOOP('',(#241));
#205=EDGE_LOOP('',(#242));
#206=EDGE_LOOP('',(#243));
#207=EDGE_LOOP('',(#244));
#208=EDGE_LOOP('',(#245));
#209=EDGE_LOOP('',(#246));
#210=EDGE_LOOP('',(#247,#248,#249,#250));
#211=EDGE_LOOP('',(#251,#252,#253,#254));
#212=EDGE_LOOP('',(#255,#256,#257,#258));
#213=EDGE_LOOP('',(#259,#260,#261,#262));
#214=EDGE_LOOP('',(#263,#264,#265,#266));
#215=EDGE_LOOP('',(#267));
#216=EDGE_LOOP('',(#268));
#217=EDGE_LOOP('',(#269));
#218=EDGE_LOOP('',(#270));
#219=EDGE_LOOP('',(#271));
#220=EDGE_LOOP('',(#272));
#221=EDGE_LOOP('',(#273));
#222=EDGE_LOOP('',(#274));
#223=EDGE_LOOP('',(#275));
#224=EDGE_LOOP('',(#276));
#225=ORIENTED_EDGE('',*,*,#299,.T.);
#226=ORIENTED_EDGE('',*,*,#300,.F.);
#227=ORIENTED_EDGE('',*,*,#301,.F.);
#228=ORIENTED_EDGE('',*,*,#302,.T.);
#229=ORIENTED_EDGE('',*,*,#303,.F.);
#230=ORIENTED_EDGE('',*,*,#304,.F.);
#231=ORIENTED_EDGE('',*,*,#299,.F.);
#232=ORIENTED_EDGE('',*,*,#305,.T.);
#233=ORIENTED_EDGE('',*,*,#306,.T.);
#234=ORIENTED_EDGE('',*,*,#307,.T.);
#235=ORIENTED_EDGE('',*,*,#308,.F.);
#236=ORIENTED_EDGE('',*,*,#309,.T.);
#237=ORIENTED_EDGE('',*,*,#300,.T.);
#238=ORIENTED_EDGE('',*,*,#310,.F.);
#239=ORIENTED_EDGE('',*,*,#310,.T.);
#240=ORIENTED_EDGE('',*,*,#311,.F.);
#241=ORIENTED_EDGE('',*,*,#311,.T.);
#242=ORIENTED_EDGE('',*,*,#302,.F.);
#243=ORIENTED_EDGE('',*,*,#312,.F.);
#244=ORIENTED_EDGE('',*,*,#303,.T.);
#245=ORIENTED_EDGE('',*,*,#312,.T.);
#246=ORIENTED_EDGE('',*,*,#305,.F.);
#247=ORIENTED_EDGE('',*,*,#313,.T.);
#248=ORIENTED_EDGE('',*,*,#314,.F.);
#249=ORIENTED_EDGE('',*,*,#315,.F.);
#250=ORIENTED_EDGE('',*,*,#307,.F.);
#251=ORIENTED_EDGE('',*,*,#316,.T.);
#252=ORIENTED_EDGE('',*,*,#317,.F.);
#253=ORIENTED_EDGE('',*,*,#313,.F.);
#254=ORIENTED_EDGE('',*,*,#306,.F.);
#255=ORIENTED_EDGE('',*,*,#318,.T.);
#256=ORIENTED_EDGE('',*,*,#319,.F.);
#257=ORIENTED_EDGE('',*,*,#316,.F.);
#258=ORIENTED_EDGE('',*,*,#309,.F.);
#259=ORIENTED_EDGE('',*,*,#308,.T.);
#260=ORIENTED_EDGE('',*,*,#315,.T.);
#261=ORIENTED_EDGE('',*,*,#320,.T.);
#262=ORIENTED_EDGE('',*,*,#318,.F.);
#263=ORIENTED_EDGE('',*,*,#314,.T.);
#264=ORIENTED_EDGE('',*,*,#317,.T.);
#265=ORIENTED_EDGE('',*,*,#319,.T.);
#266=ORIENTED_EDGE('',*,*,#320,.F.);
#267=ORIENTED_EDGE('',*,*,#304,.T.);
#268=ORIENTED_EDGE('',*,*,#301,.T.);
#269=ORIENTED_EDGE('',*,*,#321,.T.);
#270=ORIENTED_EDGE('',*,*,#322,.T.);
#271=ORIENTED_EDGE('',*,*,#323,.T.);
#272=ORIENTED_EDGE('',*,*,#324,.T.);
#273=ORIENTED_EDGE('',*,*,#324,.F.);
#274=ORIENTED_EDGE('',*,*,#321,.F.);
#275=ORIENTED_EDGE('',*,*,#322,.F.);
#276=ORIENTED_EDGE('',*,*,#323,.F.);
#277=VERTEX_POINT('',#451);
#278=VERTEX_POINT('',#453);
#279=VERTEX_POINT('',#472);
#280=VERTEX_POINT('',#475);
#281=VERTEX_POINT('',#477);
#282=VERTEX_POINT('',#496);
#283=VERTEX_POINT('',#499);
#284=VERTEX_POINT('',#501);
#285=VERTEX_POINT('',#502);
#286=VERTEX_POINT('',#513);
#287=VERTEX_POINT('',#515);
#288=VERTEX_POINT('',#528);
#289=VERTEX_POINT('',#531);
#290=VERTEX_POINT('',#535);
#291=VERTEX_POINT('',#539);
#292=VERTEX_POINT('',#541);
#293=VERTEX_POINT('',#545);
#294=VERTEX_POINT('',#549);
#295=VERTEX_POINT('',#557);
#296=VERTEX_POINT('',#560);
#297=VERTEX_POINT('',#563);
#298=VERTEX_POINT('',#565);
#299=EDGE_CURVE('',#277,#277,#325,.T.);
#300=EDGE_CURVE('',#278,#278,#326,.T.);
#301=EDGE_CURVE('',#279,#279,#164,.T.);
#302=EDGE_CURVE('',#280,#280,#327,.T.);
#303=EDGE_CURVE('',#281,#281,#328,.T.);
#304=EDGE_CURVE('',#282,#282,#165,.T.);
#305=EDGE_CURVE('',#283,#283,#329,.T.);
#306=EDGE_CURVE('',#284,#285,#119,.T.);
#307=EDGE_CURVE('',#285,#286,#166,.T.);
#308=EDGE_CURVE('',#287,#286,#120,.T.);
#309=EDGE_CURVE('',#287,#284,#167,.T.);
#310=EDGE_CURVE('',#288,#288,#330,.T.);
#311=EDGE_CURVE('',#289,#289,#331,.T.);
#312=EDGE_CURVE('',#290,#290,#332,.T.);
#313=EDGE_CURVE('',#285,#291,#121,.T.);
#314=EDGE_CURVE('',#292,#291,#333,.T.);
#315=EDGE_CURVE('',#286,#292,#122,.T.);
#316=EDGE_CURVE('',#284,#293,#123,.T.);
#317=EDGE_CURVE('',#291,#293,#124,.T.);
#318=EDGE_CURVE('',#287,#294,#125,.T.);
#319=EDGE_CURVE('',#293,#294,#334,.T.);
#320=EDGE_CURVE('',#292,#294,#126,.T.);
#321=EDGE_CURVE('',#295,#295,#335,.T.);
#322=EDGE_CURVE('',#296,#296,#336,.T.);
#323=EDGE_CURVE('',#297,#297,#337,.T.);
#324=EDGE_CURVE('',#298,#298,#338,.T.);
#325=CIRCLE('',#340,15.);
#326=CIRCLE('',#341,15.);
#327=CIRCLE('',#343,8.99999999999999);
#328=CIRCLE('',#344,9.);
#329=CIRCLE('',#346,15.);
#330=CIRCLE('',#348,15.);
#331=CIRCLE('',#350,13.5);
#332=CIRCLE('',#353,14.);
#333=CIRCLE('',#356,2.5);
#334=CIRCLE('',#359,2.5);
#335=CIRCLE('',#364,6.99999999999999);
#336=CIRCLE('',#366,7.);
#337=CIRCLE('',#368,8.);
#338=CIRCLE('',#369,8.);
#339=AXIS2_PLACEMENT_3D('',#449,#373,#374);
#340=AXIS2_PLACEMENT_3D('',#450,#375,#376);
#341=AXIS2_PLACEMENT_3D('',#452,#377,#378);
#342=AXIS2_PLACEMENT_3D('',#473,#379,#380);
#343=AXIS2_PLACEMENT_3D('',#474,#381,#382);
#344=AXIS2_PLACEMENT_3D('',#476,#383,#384);
#345=AXIS2_PLACEMENT_3D('',#497,#385,#386);
#346=AXIS2_PLACEMENT_3D('',#498,#387,#388);
#347=AXIS2_PLACEMENT_3D('',#526,#391,#392);
#348=AXIS2_PLACEMENT_3D('',#527,#393,#394);
#349=AXIS2_PLACEMENT_3D('',#529,#395,#396);
#350=AXIS2_PLACEMENT_3D('',#530,#397,#398);
#351=AXIS2_PLACEMENT_3D('',#532,#399,#400);
#352=AXIS2_PLACEMENT_3D('',#533,#401,#402);
#353=AXIS2_PLACEMENT_3D('',#534,#403,#404);
#354=AXIS2_PLACEMENT_3D('',#536,#405,#406);
#355=AXIS2_PLACEMENT_3D('',#537,#407,#408);
#356=AXIS2_PLACEMENT_3D('',#540,#410,#411);
#357=AXIS2_PLACEMENT_3D('',#543,#413,#414);
#358=AXIS2_PLACEMENT_3D('',#547,#417,#418);
#359=AXIS2_PLACEMENT_3D('',#550,#420,#421);
#360=AXIS2_PLACEMENT_3D('',#551,#422,#423);
#361=AXIS2_PLACEMENT_3D('',#553,#425,#426);
#362=AXIS2_PLACEMENT_3D('',#554,#427,#428);
#363=AXIS2_PLACEMENT_3D('',#555,#429,#430);
#364=AXIS2_PLACEMENT_3D('',#556,#431,#432);
#365=AXIS2_PLACEMENT_3D('',#558,#433,#434);
#366=AXIS2_PLACEMENT_3D('',#559,#435,#436);
#367=AXIS2_PLACEMENT_3D('',#561,#437,#438);
#368=AXIS2_PLACEMENT_3D('',#562,#439,#440);
#369=AXIS2_PLACEMENT_3D('',#564,#441,#442);
#370=AXIS2_PLACEMENT_3D('',#566,#443,#444);
#371=AXIS2_PLACEMENT_3D('',#567,#445,#446);
#372=AXIS2_PLACEMENT_3D('',#568,#447,#448);
#373=DIRECTION('',(0.,0.,1.));
#374=DIRECTION('',(1.,0.,0.));
#375=DIRECTION('',(1.,0.,0.));
#376=DIRECTION('',(0.,0.,-1.));
#377=DIRECTION('',(1.,0.,0.));
#378=DIRECTION('',(0.,0.,-1.));
#379=DIRECTION('',(1.,0.,0.));
#380=DIRECTION('',(0.,0.,-1.));
#381=DIRECTION('',(1.,0.,0.));
#382=DIRECTION('',(0.,0.,-1.));
#383=DIRECTION('',(1.,0.,0.));
#384=DIRECTION('',(0.,0.,-1.));
#385=DIRECTION('',(1.,0.,0.));
#386=DIRECTION('',(0.,0.,-1.));
#387=DIRECTION('',(1.,0.,0.));
#388=DIRECTION('',(0.,0.,-1.));
#389=DIRECTION('',(-1.,0.,0.));
#390=DIRECTION('',(-1.,0.,0.));
#391=DIRECTION('',(1.,0.,0.));
#392=DIRECTION('',(0.,0.,-1.));
#393=DIRECTION('',(1.,0.,0.));
#394=DIRECTION('',(0.,0.,-1.));
#395=DIRECTION('',(1.,0.,0.));
#396=DIRECTION('',(0.,0.,-1.));
#397=DIRECTION('',(1.,0.,0.));
#398=DIRECTION('',(0.,0.,-1.));
#399=DIRECTION('',(1.,0.,0.));
#400=DIRECTION('',(0.,0.,-1.));
#401=DIRECTION('',(1.,0.,0.));
#402=DIRECTION('',(0.,0.,-1.));
#403=DIRECTION('',(1.,0.,0.));
#404=DIRECTION('',(0.,0.,-1.));
#405=DIRECTION('',(1.,0.,0.));
#406=DIRECTION('',(0.,0.,-1.));
#407=DIRECTION('',(1.,0.,0.));
#408=DIRECTION('',(0.,0.,-1.));
#409=DIRECTION('',(0.,0.,-1.));
#410=DIRECTION('',(0.,0.,1.));
#411=DIRECTION('',(1.,0.,0.));
#412=DIRECTION('',(0.,0.,-1.));
#413=DIRECTION('',(0.,0.,-1.));
#414=DIRECTION('',(-1.,0.,0.));
#415=DIRECTION('',(0.,0.,-1.));
#416=DIRECTION('',(1.,0.,0.));
#417=DIRECTION('',(0.,1.,0.));
#418=DIRECTION('',(0.,0.,1.));
#419=DIRECTION('',(0.,0.,-1.));
#420=DIRECTION('',(0.,0.,1.));
#421=DIRECTION('',(0.999999999999999,0.,0.));
#422=DIRECTION('',(0.,0.,-1.));
#423=DIRECTION('',(-0.999999999999999,0.,0.));
#424=DIRECTION('',(1.,0.,0.));
#425=DIRECTION('',(0.,1.,0.));
#426=DIRECTION('',(0.,0.,1.));
#427=DIRECTION('',(0.,0.,1.));
#428=DIRECTION('',(1.,0.,0.));
#429=DIRECTION('',(0.,0.707106781186547,-0.707106781186548));
#430=DIRECTION('',(0.,0.707106781186547,0.707106781186547));
#431=DIRECTION('',(1.,0.,0.));
#432=DIRECTION('',(0.,0.,1.));
#433=DIRECTION('',(-1.,0.,0.));
#434=DIRECTION('',(0.,0.,1.));
#435=DIRECTION('',(-1.,0.,0.));
#436=DIRECTION('',(0.,0.,1.));
#437=DIRECTION('',(-1.,0.,0.));
#438=DIRECTION('',(0.,0.,1.));
#439=DIRECTION('',(1.,0.,0.));
#440=DIRECTION('',(0.,0.,1.));
#441=DIRECTION('',(-1.,0.,0.));
#442=DIRECTION('',(0.,0.,1.));
#443=DIRECTION('',(1.,0.,0.));
#444=DIRECTION('',(0.,0.,-1.));
#445=DIRECTION('',(-1.,0.,0.));
#446=DIRECTION('',(1.37813185777699E-017,0.,1.));
#447=DIRECTION('',(1.,0.,0.));
#448=DIRECTION('',(5.50705865389463E-017,0.,-1.));
#449=CARTESIAN_POINT('',(0.,0.,0.));
#450=CARTESIAN_POINT('',(-19.0977417433703,0.,0.));
#451=CARTESIAN_POINT('',(-19.0977417433703,0.,-15.));
#452=CARTESIAN_POINT('',(-13.9022582566299,0.,0.));
#453=CARTESIAN_POINT('',(-13.9022582566299,0.,-15.));
#454=CARTESIAN_POINT('',(-17.8116501455969,-10.8619479561661,9.1013776383541));
#455=CARTESIAN_POINT('',(-17.0377511620034,-11.02634603669,8.58460333354187));
#456=CARTESIAN_POINT('',(-16.5381501078107,-11.0447386570033,8.48539269300916));
#457=CARTESIAN_POINT('',(-15.6387264221015,-10.9804686536967,8.72889625359647));
#458=CARTESIAN_POINT('',(-15.2527517682486,-10.8973965102275,9.04771606870711));
#459=CARTESIAN_POINT('',(-14.7757066209605,-10.5364593181719,9.77082316113738));
#460=CARTESIAN_POINT('',(-14.6903853577413,-10.2295436125246,10.1701877112348));
#461=CARTESIAN_POINT('',(-14.9059970420768,-9.49764375635104,10.7105916407369));
#462=CARTESIAN_POINT('',(-15.1861830049742,-9.10403460012485,10.8609546763592));
#463=CARTESIAN_POINT('',(-15.9576177743352,-8.58649692009183,11.0258905721451));
#464=CARTESIAN_POINT('',(-16.4565408864605,-8.48521062660682,11.0447587644614));
#465=CARTESIAN_POINT('',(-17.358476512676,-8.7268949733605,10.981024564458));
#466=CARTESIAN_POINT('',(-17.7437395352283,-9.04334395276904,10.8992858594701));
#467=CARTESIAN_POINT('',(-18.2252044451787,-9.77126287517215,10.5365312390159));
#468=CARTESIAN_POINT('',(-18.3100172544549,-10.1700154762118,10.2300569945546));
#469=CARTESIAN_POINT('',(-18.093109701557,-10.7119917169621,9.49546680378361));
#470=CARTESIAN_POINT('',(-17.8116501455969,-10.8619479561661,9.1013776383541));
#471=CARTESIAN_POINT('',(-17.0377511620034,-11.02634603669,8.58460333354187));
#472=CARTESIAN_POINT('',(-17.4247004671493,-10.9441470341228,8.84299066390475));
#473=CARTESIAN_POINT('',(-16.5000000000001,0.,0.));
#474=CARTESIAN_POINT('',(-7.50000000000006,0.,0.));
#475=CARTESIAN_POINT('',(-7.50000000000006,0.,-8.99999999999999));
#476=CARTESIAN_POINT('',(-52.5,0.,0.));
#477=CARTESIAN_POINT('',(-52.5,0.,-9.));
#478=CARTESIAN_POINT('',(-16.9636394008398,-5.00505862751542,7.47993236166834));
#479=CARTESIAN_POINT('',(-16.0363605991602,-5.00505862751542,7.47993236166834));
#480=CARTESIAN_POINT('',(-15.5843920178739,-5.16930758012313,7.37454899050808));
#481=CARTESIAN_POINT('',(-14.9404444369148,-5.68796750223438,6.98231618912003));
#482=CARTESIAN_POINT('',(-14.750269873058,-6.03953012555715,6.68831772450832));
#483=CARTESIAN_POINT('',(-14.7497307338993,-6.68693433726028,6.04106176848523));
#484=CARTESIAN_POINT('',(-14.9369679796458,-6.98015961471847,5.69081231436219));
#485=CARTESIAN_POINT('',(-15.5876432915788,-7.37656839057843,5.16664415489999));
#486=CARTESIAN_POINT('',(-16.0418957999938,-7.4798274368217,5.00521543501496));
#487=CARTESIAN_POINT('',(-16.9566891178691,-7.48003712433351,5.00490206239195));
#488=CARTESIAN_POINT('',(-17.413385490973,-7.37546654092732,5.16801748515575));
#489=CARTESIAN_POINT('',(-18.0592434099373,-6.98294079821565,5.68721805734837));
#490=CARTESIAN_POINT('',(-18.2496669266039,-6.69168169809631,6.03614877277326));
#491=CARTESIAN_POINT('',(-18.250332167373,-6.03802099154012,6.68999241116238));
#492=CARTESIAN_POINT('',(-18.0598787081394,-5.68852138105326,6.98186313209046));
#493=CARTESIAN_POINT('',(-17.4167774244755,-5.16995656853398,7.37409230871275));
#494=CARTESIAN_POINT('',(-16.9636394008398,-5.00505862751542,7.47993236166834));
#495=CARTESIAN_POINT('',(-16.0363605991602,-5.00505862751542,7.47993236166834));
#496=CARTESIAN_POINT('',(-16.5,-5.00505862751542,7.47993236166834));
#497=CARTESIAN_POINT('',(-70.,0.,0.));
#498=CARTESIAN_POINT('',(-51.5,0.,0.));
#499=CARTESIAN_POINT('',(-51.5,0.,-15.));
#500=CARTESIAN_POINT('',(-70.,-2.5,14.790199457749));
#501=CARTESIAN_POINT('',(-22.6,-2.5,14.790199457749));
#502=CARTESIAN_POINT('',(-37.6,-2.5,14.790199457749));
#503=CARTESIAN_POINT('',(-37.6,-2.5,14.790199457749));
#504=CARTESIAN_POINT('',(-38.2606409106773,-2.5,14.790199457749));
#505=CARTESIAN_POINT('',(-38.9076304205405,-2.22787592310545,14.8408625626302));
#506=CARTESIAN_POINT('',(-39.8277975848842,-1.30776388016338,14.9500630890097));
#507=CARTESIAN_POINT('',(-40.1004588238174,-0.660022241265906,15.0000764706183));
#508=CARTESIAN_POINT('',(-40.0995399712207,0.663493497211726,14.9999233285547));
#509=CARTESIAN_POINT('',(-39.8270853902629,1.30914448483372,14.9499394160107));
#510=CARTESIAN_POINT('',(-38.9057708164612,2.22906509383898,14.8406811377372));
#511=CARTESIAN_POINT('',(-38.2533963912442,2.5,14.790199457749));
#512=CARTESIAN_POINT('',(-37.6,2.5,14.790199457749));
#513=CARTESIAN_POINT('',(-37.6,2.5,14.790199457749));
#514=CARTESIAN_POINT('',(-70.,2.5,14.790199457749));
#515=CARTESIAN_POINT('',(-22.6,2.5,14.790199457749));
#516=CARTESIAN_POINT('',(-22.6,2.5,14.790199457749));
#517=CARTESIAN_POINT('',(-21.9465119004374,2.5,14.790199457749));
#518=CARTESIAN_POINT('',(-21.2970374853301,2.2328823021362,14.8402887914925));
#519=CARTESIAN_POINT('',(-20.3662474804335,1.3014700807772,14.950789625265));
#520=CARTESIAN_POINT('',(-20.0998080487213,0.652468345507518,15.0000319918784));
#521=CARTESIAN_POINT('',(-20.1001921674083,-0.653938479706938,14.9999679720999));
#522=CARTESIAN_POINT('',(-20.3710485867186,-1.30641714139819,14.9502113065803));
#523=CARTESIAN_POINT('',(-21.2927836518213,-2.22848279534814,14.8408021444118));
#524=CARTESIAN_POINT('',(-21.9392663641901,-2.5,14.790199457749));
#525=CARTESIAN_POINT('',(-22.6,-2.5,14.790199457749));
#526=CARTESIAN_POINT('',(-70.,0.,0.));
#527=CARTESIAN_POINT('',(-9.00000000000006,0.,0.));
#528=CARTESIAN_POINT('',(-9.00000000000006,0.,-15.));
#529=CARTESIAN_POINT('',(-70.,0.,0.));
#530=CARTESIAN_POINT('',(-7.50000000000006,0.,0.));
#531=CARTESIAN_POINT('',(-7.50000000000006,0.,-13.5));
#532=CARTESIAN_POINT('',(-9.00000000000006,0.,0.));
#533=CARTESIAN_POINT('',(-7.50000000000006,11.25,0.));
#534=CARTESIAN_POINT('',(-52.5,0.,0.));
#535=CARTESIAN_POINT('',(-52.5,0.,-14.));
#536=CARTESIAN_POINT('',(-52.5,11.5,0.));
#537=CARTESIAN_POINT('',(-51.5,0.,0.));
#538=CARTESIAN_POINT('',(-37.6,-2.5,20.));
#539=CARTESIAN_POINT('',(-37.6,-2.5,12.));
#540=CARTESIAN_POINT('',(-37.6,0.,12.));
#541=CARTESIAN_POINT('',(-37.6,2.5,12.));
#542=CARTESIAN_POINT('',(-37.6,2.5,20.));
#543=CARTESIAN_POINT('',(-37.6,0.,20.));
#544=CARTESIAN_POINT('',(-22.6,-2.5,20.));
#545=CARTESIAN_POINT('',(-22.6,-2.5,12.));
#546=CARTESIAN_POINT('',(-37.6,-2.5,12.));
#547=CARTESIAN_POINT('',(-37.6,-2.5,20.));
#548=CARTESIAN_POINT('',(-22.6,2.5,20.));
#549=CARTESIAN_POINT('',(-22.6,2.5,12.));
#550=CARTESIAN_POINT('',(-22.6,0.,12.));
#551=CARTESIAN_POINT('',(-22.6,0.,20.));
#552=CARTESIAN_POINT('',(-37.6,2.5,12.));
#553=CARTESIAN_POINT('',(-37.6,2.5,20.));
#554=CARTESIAN_POINT('',(-37.6,0.,12.));
#555=CARTESIAN_POINT('',(-16.5,-17.6776695296637,17.6776695296637));
#556=CARTESIAN_POINT('',(10.,0.,0.));
#557=CARTESIAN_POINT('',(10.,0.,6.99999999999999));
#558=CARTESIAN_POINT('',(10.,4.00000000000001,0.));
#559=CARTESIAN_POINT('',(-70.,0.,0.));
#560=CARTESIAN_POINT('',(-70.,0.,7.));
#561=CARTESIAN_POINT('',(-70.,3.99999999999999,0.));
#562=CARTESIAN_POINT('',(-69.,0.,0.));
#563=CARTESIAN_POINT('',(-69.,0.,8.));
#564=CARTESIAN_POINT('',(9.00000000000001,0.,0.));
#565=CARTESIAN_POINT('',(9.00000000000001,0.,8.));
#566=CARTESIAN_POINT('',(-70.,0.,0.));
#567=CARTESIAN_POINT('',(9.99999999999999,0.,0.));
#568=CARTESIAN_POINT('',(-69.,0.,0.));
#569=(
GEOMETRIC_REPRESENTATION_CONTEXT(3)
GLOBAL_UNCERTAINTY_ASSIGNED_CONTEXT((#570))
GLOBAL_UNIT_ASSIGNED_CONTEXT((#576,#572,#571))
REPRESENTATION_CONTEXT('SCI1605','TOP_LEVEL_ASSEMBLY_PART')
);
#570=UNCERTAINTY_MEASURE_WITH_UNIT(LENGTH_MEASURE(0.02),#576,
'DISTANCE_ACCURACY_VALUE','Maximum Tolerance applied to model');
#571=(
NAMED_UNIT(*)
SI_UNIT($,.STERADIAN.)
SOLID_ANGLE_UNIT()
);
#572=(
CONVERSION_BASED_UNIT('DEGREE',#574)
NAMED_UNIT(#573)
PLANE_ANGLE_UNIT()
);
#573=DIMENSIONAL_EXPONENTS(0.,0.,0.,0.,0.,0.,0.);
#574=PLANE_ANGLE_MEASURE_WITH_UNIT(PLANE_ANGLE_MEASURE(0.0174532925),#575);
#575=(
NAMED_UNIT(*)
PLANE_ANGLE_UNIT()
SI_UNIT($,.RADIAN.)
);
#576=(
LENGTH_UNIT()
NAMED_UNIT(*)
SI_UNIT(.MILLI.,.METRE.)
);
ENDSEC;
END-ISO-10303-21;
