ISO-10303-21;
HEADER;
FILE_DESCRIPTION (( 'STEP AP203' ),
    '1' );
FILE_NAME ('LME5UU.STEP',
    '2016-05-04T13:31:00',
    ( '' ),
    ( '' ),
    'SwSTEP 2.0',
    'SolidWorks 2010',
    '' );
FILE_SCHEMA (( 'CONFIG_CONTROL_DESIGN' ));
ENDSEC;

DATA;
#1 = AXIS2_PLACEMENT_3D ( 'NONE', #295, #228, #154 ) ;
#2 = DESIGN_CONTEXT ( 'detailed design', #277, 'design' ) ;
#3 = PRODUCT_DEFINITION_SHAPE ( 'NONE', 'NONE',  #319 ) ;
#4 = EDGE_LOOP ( 'NONE', ( #140 ) ) ;
#5 = ORIENTED_EDGE ( 'NONE', *, *, #369, .F. ) ;
#6 = ORIENTED_EDGE ( 'NONE', *, *, #358, .F. ) ;
#7 = ORIENTED_EDGE ( 'NONE', *, *, #357, .T. ) ;
#8 = EDGE_LOOP ( 'NONE', ( #139 ) ) ;
#9 = FACE_OUTER_BOUND ( 'NONE', #22, .T. ) ;
#10 = EDGE_LOOP ( 'NONE', ( #143 ) ) ;
#11 = EDGE_LOOP ( 'NONE', ( #23 ) ) ;
#12 = EDGE_LOOP ( 'NONE', ( #136 ) ) ;
#13 = CYLINDRICAL_SURFACE ( 'NONE', #305, 6.000000000000000000 ) ;
#14 = FACE_OUTER_BOUND ( 'NONE', #114, .T. ) ;
#15 = FACE_BOUND ( 'NONE', #20, .T. ) ;
#16 = CIRCLE ( 'NONE', #151, 5.750000000000001800 ) ;
#17 = FACE_OUTER_BOUND ( 'NONE', #11, .T. ) ;
#18 = CIRCLE ( 'NONE', #306, 5.750000000000001800 ) ;
#19 = EDGE_LOOP ( 'NONE', ( #109 ) ) ;
#20 = EDGE_LOOP ( 'NONE', ( #5 ) ) ;
#21 = EDGE_LOOP ( 'NONE', ( #106 ) ) ;
#22 = EDGE_LOOP ( 'NONE', ( #110 ) ) ;
#23 = ORIENTED_EDGE ( 'NONE', *, *, #366, .F. ) ;
#24 = ORIENTED_EDGE ( 'NONE', *, *, #369, .T. ) ;
#25 = ORIENTED_EDGE ( 'NONE', *, *, #354, .T. ) ;
#26 = EDGE_LOOP ( 'NONE', ( #142 ) ) ;
#27 = LOCAL_TIME ( 16, 31, 0.0000000000000000000, #28 ) ;
#28 = COORDINATED_UNIVERSAL_TIME_OFFSET ( 2, 0, .AHEAD. ) ;
#29 = APPROVAL_PERSON_ORGANIZATION ( #46, #332, #220 ) ;
#30 = DATE_AND_TIME ( #31, #32 ) ;
#31 = CALENDAR_DATE ( 2016, 4, 5 ) ;
#32 = LOCAL_TIME ( 16, 31, 0.0000000000000000000, #57 ) ;
#33 = PERSON_AND_ORGANIZATION ( #364, #34 ) ;
#34 = ORGANIZATION ( 'UNSPECIFIED', 'UNSPECIFIED', '' ) ;
#35 = SHAPE_DEFINITION_REPRESENTATION ( #3, #336 ) ;
#36 = COORDINATED_UNIVERSAL_TIME_OFFSET ( 2, 0, .AHEAD. ) ;
#37 = APPROVAL_PERSON_ORGANIZATION ( #39, #325, #289 ) ;
#38 = CIRCLE ( 'NONE', #309, 6.000000000000000000 ) ;
#39 = PERSON_AND_ORGANIZATION ( #364, #34 ) ;
#40 = APPROVAL_DATE_TIME ( #41, #332 ) ;
#41 = DATE_AND_TIME ( #42, #27 ) ;
#42 = CALENDAR_DATE ( 2016, 4, 5 ) ;
#43 = DATE_AND_TIME ( #44, #45 ) ;
#44 = CALENDAR_DATE ( 2016, 4, 5 ) ;
#45 = LOCAL_TIME ( 16, 31, 0.0000000000000000000, #49 ) ;
#46 = PERSON_AND_ORGANIZATION ( #364, #34 ) ;
#47 = DATE_AND_TIME ( #48, #61 ) ;
#48 = CALENDAR_DATE ( 2016, 4, 5 ) ;
#49 = COORDINATED_UNIVERSAL_TIME_OFFSET ( 2, 0, .AHEAD. ) ;
#50 = APPROVAL_PERSON_ORGANIZATION ( #51, #320, #274 ) ;
#51 = PERSON_AND_ORGANIZATION ( #364, #34 ) ;
#52 = PERSON_AND_ORGANIZATION ( #364, #34 ) ;
#53 = ORIENTED_EDGE ( 'NONE', *, *, #368, .T. ) ;
#54 = PERSON_AND_ORGANIZATION ( #364, #34 ) ;
#55 = APPROVAL_DATE_TIME ( #65, #325 ) ;
#56 = ORIENTED_EDGE ( 'NONE', *, *, #355, .F. ) ;
#57 = COORDINATED_UNIVERSAL_TIME_OFFSET ( 2, 0, .AHEAD. ) ;
#58 = PERSON_AND_ORGANIZATION ( #364, #34 ) ;
#59 = APPROVAL_DATE_TIME ( #43, #320 ) ;
#60 = FACE_OUTER_BOUND ( 'NONE', #19, .T. ) ;
#61 = LOCAL_TIME ( 16, 31, 0.0000000000000000000, #62 ) ;
#62 = COORDINATED_UNIVERSAL_TIME_OFFSET ( 2, 0, .AHEAD. ) ;
#63 = PERSON_AND_ORGANIZATION ( #364, #34 ) ;
#64 =( GEOMETRIC_REPRESENTATION_CONTEXT ( 3 ) GLOBAL_UNCERTAINTY_ASSIGNED_CONTEXT ( ( #337 ) ) GLOBAL_UNIT_ASSIGNED_CONTEXT ( ( #225, #213, #212 ) ) REPRESENTATION_CONTEXT ( 'NONE', 'WORKASPACE' ) );
#65 = DATE_AND_TIME ( #66, #67 ) ;
#66 = CALENDAR_DATE ( 2016, 4, 5 ) ;
#67 = LOCAL_TIME ( 16, 31, 0.0000000000000000000, #36 ) ;
#68 = EDGE_LOOP ( 'NONE', ( #94 ) ) ;
#69 = ORIENTED_EDGE ( 'NONE', *, *, #366, .T. ) ;
#70 = FACE_OUTER_BOUND ( 'NONE', #133, .T. ) ;
#71 = FACE_OUTER_BOUND ( 'NONE', #101, .T. ) ;
#72 = EDGE_LOOP ( 'NONE', ( #131 ) ) ;
#73 = CLOSED_SHELL ( 'NONE', ( #353, #342, #344, #341, #352, #343, #340, #347, #346, #345, #350, #348, #351, #349 ) ) ;
#74 = FACE_OUTER_BOUND ( 'NONE', #68, .T. ) ;
#75 = CYLINDRICAL_SURFACE ( 'NONE', #303, 2.500000000000001300 ) ;
#76 = TOROIDAL_SURFACE ( 'NONE', #297, 5.750000000000001800, 0.2500000000000000000 ) ;
#77 = EDGE_LOOP ( 'NONE', ( #88 ) ) ;
#78 = FACE_OUTER_BOUND ( 'NONE', #112, .T. ) ;
#79 = FACE_OUTER_BOUND ( 'NONE', #134, .T. ) ;
#80 = FACE_OUTER_BOUND ( 'NONE', #111, .T. ) ;
#81 = FACE_OUTER_BOUND ( 'NONE', #72, .T. ) ;
#82 = EDGE_LOOP ( 'NONE', ( #100 ) ) ;
#83 = FACE_OUTER_BOUND ( 'NONE', #21, .T. ) ;
#84 = FACE_OUTER_BOUND ( 'NONE', #82, .T. ) ;
#85 = ORIENTED_EDGE ( 'NONE', *, *, #361, .F. ) ;
#86 = CIRCLE ( 'NONE', #315, 5.750000000000001800 ) ;
#87 = CIRCLE ( 'NONE', #313, 6.000000000000001800 ) ;
#88 = ORIENTED_EDGE ( 'NONE', *, *, #356, .T. ) ;
#89 = CIRCLE ( 'NONE', #308, 6.000000000000000000 ) ;
#90 = CIRCLE ( 'NONE', #307, 5.750000000000000000 ) ;
#91 = FACE_BOUND ( 'NONE', #12, .T. ) ;
#92 = ORIENTED_EDGE ( 'NONE', *, *, #365, .F. ) ;
#93 = FACE_OUTER_BOUND ( 'NONE', #26, .T. ) ;
#94 = ORIENTED_EDGE ( 'NONE', *, *, #152, .F. ) ;
#95 = FACE_BOUND ( 'NONE', #120, .T. ) ;
#96 = EDGE_LOOP ( 'NONE', ( #113 ) ) ;
#97 = CYLINDRICAL_SURFACE ( 'NONE', #148, 5.750000000000001800 ) ;
#98 = FACE_OUTER_BOUND ( 'NONE', #135, .T. ) ;
#99 = FACE_OUTER_BOUND ( 'NONE', #103, .T. ) ;
#100 = ORIENTED_EDGE ( 'NONE', *, *, #149, .F. ) ;
#101 = EDGE_LOOP ( 'NONE', ( #85 ) ) ;
#102 = FACE_OUTER_BOUND ( 'NONE', #104, .T. ) ;
#103 = EDGE_LOOP ( 'NONE', ( #147 ) ) ;
#104 = EDGE_LOOP ( 'NONE', ( #124 ) ) ;
#105 = CIRCLE ( 'NONE', #314, 5.750000000000000000 ) ;
#106 = ORIENTED_EDGE ( 'NONE', *, *, #357, .F. ) ;
#107 = CIRCLE ( 'NONE', #362, 6.000000000000000000 ) ;
#108 = FACE_OUTER_BOUND ( 'NONE', #138, .T. ) ;
#109 = ORIENTED_EDGE ( 'NONE', *, *, #152, .T. ) ;
#110 = ORIENTED_EDGE ( 'NONE', *, *, #358, .T. ) ;
#111 = EDGE_LOOP ( 'NONE', ( #6 ) ) ;
#112 = EDGE_LOOP ( 'NONE', ( #92 ) ) ;
#113 = ORIENTED_EDGE ( 'NONE', *, *, #367, .T. ) ;
#114 = EDGE_LOOP ( 'NONE', ( #69 ) ) ;
#115 = EDGE_LOOP ( 'NONE', ( #25 ) ) ;
#116 = CIRCLE ( 'NONE', #316, 5.750000000000000000 ) ;
#117 = CIRCLE ( 'NONE', #300, 6.000000000000001800 ) ;
#118 = FACE_OUTER_BOUND ( 'NONE', #146, .T. ) ;
#119 = CYLINDRICAL_SURFACE ( 'NONE', #298, 6.000000000000001800 ) ;
#120 = EDGE_LOOP ( 'NONE', ( #141 ) ) ;
#121 = CIRCLE ( 'NONE', #311, 2.500000000000002700 ) ;
#122 = CYLINDRICAL_SURFACE ( 'NONE', #1, 5.750000000000000000 ) ;
#123 = CYLINDRICAL_SURFACE ( 'NONE', #304, 6.000000000000000900 ) ;
#124 = ORIENTED_EDGE ( 'NONE', *, *, #355, .T. ) ;
#125 = CIRCLE ( 'NONE', #310, 2.500000000000000000 ) ;
#126 = FACE_BOUND ( 'NONE', #10, .T. ) ;
#127 = FACE_OUTER_BOUND ( 'NONE', #96, .T. ) ;
#128 = FACE_OUTER_BOUND ( 'NONE', #115, .T. ) ;
#129 = ORIENTED_EDGE ( 'NONE', *, *, #367, .F. ) ;
#130 = CIRCLE ( 'NONE', #312, 6.000000000000001800 ) ;
#131 = ORIENTED_EDGE ( 'NONE', *, *, #359, .T. ) ;
#132 = TOROIDAL_SURFACE ( 'NONE', #301, 5.750000000000000000, 0.2500000000000000000 ) ;
#133 = EDGE_LOOP ( 'NONE', ( #24 ) ) ;
#134 = EDGE_LOOP ( 'NONE', ( #7 ) ) ;
#135 = EDGE_LOOP ( 'NONE', ( #53 ) ) ;
#136 = ORIENTED_EDGE ( 'NONE', *, *, #368, .F. ) ;
#137 = FACE_OUTER_BOUND ( 'NONE', #4, .T. ) ;
#138 = EDGE_LOOP ( 'NONE', ( #56 ) ) ;
#139 = ORIENTED_EDGE ( 'NONE', *, *, #149, .T. ) ;
#140 = ORIENTED_EDGE ( 'NONE', *, *, #365, .T. ) ;
#141 = ORIENTED_EDGE ( 'NONE', *, *, #359, .F. ) ;
#142 = ORIENTED_EDGE ( 'NONE', *, *, #354, .F. ) ;
#143 = ORIENTED_EDGE ( 'NONE', *, *, #361, .T. ) ;
#144 = FACE_BOUND ( 'NONE', #77, .T. ) ;
#145 = FACE_BOUND ( 'NONE', #8, .T. ) ;
#146 = EDGE_LOOP ( 'NONE', ( #129 ) ) ;
#147 = ORIENTED_EDGE ( 'NONE', *, *, #356, .F. ) ;
#148 = AXIS2_PLACEMENT_3D ( 'NONE', #155, #167, #160 ) ;
#149 = EDGE_CURVE ( 'NONE', #270, #270, #16, .T. ) ;
#150 = AXIS2_PLACEMENT_3D ( 'NONE', #260, #181, #266 ) ;
#151 = AXIS2_PLACEMENT_3D ( 'NONE', #162, #234, #210 ) ;
#152 = EDGE_CURVE ( 'NONE', #272, #272, #107, .T. ) ;
#153 = CARTESIAN_POINT ( 'NONE',  ( -11.00000000000000200, 0.0000000000000000000, 0.0000000000000000000 ) ) ;
#154 = DIRECTION ( 'NONE',  ( 0.0000000000000000000, 0.0000000000000000000, 1.000000000000000000 ) ) ;
#155 = CARTESIAN_POINT ( 'NONE',  ( -70.83368873109185400, 0.0000000000000000000, 0.0000000000000000000 ) ) ;
#156 = DIRECTION ( 'NONE',  ( -1.000000000000000000, -0.0000000000000000000, -0.0000000000000000000 ) ) ;
#157 = DIRECTION ( 'NONE',  ( 0.0000000000000000000, 0.0000000000000000000, 1.000000000000000000 ) ) ;
#158 = DIRECTION ( 'NONE',  ( 0.0000000000000000000, 0.0000000000000000000, 1.000000000000000000 ) ) ;
#159 = DIRECTION ( 'NONE',  ( 0.0000000000000000000, 0.0000000000000000000, 1.000000000000000000 ) ) ;
#160 = DIRECTION ( 'NONE',  ( 0.0000000000000000000, 0.0000000000000000000, 1.000000000000000000 ) ) ;
#161 = DIRECTION ( 'NONE',  ( 1.000000000000000000, 0.0000000000000000000, 0.0000000000000000000 ) ) ;
#162 = CARTESIAN_POINT ( 'NONE',  ( 6.150000000000003000, 0.0000000000000000000, 0.0000000000000000000 ) ) ;
#163 = CARTESIAN_POINT ( 'NONE',  ( 10.74999999999999600, 0.0000000000000000000, 0.0000000000000000000 ) ) ;
#164 = DIRECTION ( 'NONE',  ( -1.000000000000000000, 0.0000000000000000000, -0.0000000000000000000 ) ) ;
#165 = DIRECTION ( 'NONE',  ( 0.0000000000000000000, 0.0000000000000000000, 1.000000000000000000 ) ) ;
#166 = DIRECTION ( 'NONE',  ( -1.000000000000000000, -0.0000000000000000000, -0.0000000000000000000 ) ) ;
#167 = DIRECTION ( 'NONE',  ( -1.000000000000000000, -0.0000000000000000000, -0.0000000000000000000 ) ) ;
#168 = DIRECTION ( 'NONE',  ( -0.0000000000000000000, 0.0000000000000000000, 1.000000000000000000 ) ) ;
#169 = CARTESIAN_POINT ( 'NONE',  ( -10.75000000000000200, 0.0000000000000000000, 0.0000000000000000000 ) ) ;
#170 = CARTESIAN_POINT ( 'NONE',  ( -70.83368873109185400, 0.0000000000000000000, 0.0000000000000000000 ) ) ;
#171 = CARTESIAN_POINT ( 'NONE',  ( 11.00000000000000200, 6.000000000000002700, 0.0000000000000000000 ) ) ;
#172 = DIRECTION ( 'NONE',  ( 0.0000000000000000000, 0.0000000000000000000, 1.000000000000000000 ) ) ;
#173 = CARTESIAN_POINT ( 'NONE',  ( -70.83368873109185400, 0.0000000000000000000, 0.0000000000000000000 ) ) ;
#174 = DIRECTION ( 'NONE',  ( 0.0000000000000000000, 0.0000000000000000000, 1.000000000000000000 ) ) ;
#175 = DIRECTION ( 'NONE',  ( -1.000000000000000000, -0.0000000000000000000, -0.0000000000000000000 ) ) ;
#176 = CARTESIAN_POINT ( 'NONE',  ( -6.150000000000003000, 0.0000000000000000000, 0.0000000000000000000 ) ) ;
#177 = DIRECTION ( 'NONE',  ( 0.0000000000000000000, 0.0000000000000000000, 1.000000000000000000 ) ) ;
#178 = CARTESIAN_POINT ( 'NONE',  ( 7.250000000000000000, 5.750000000000001800, 0.0000000000000000000 ) ) ;
#179 = DIRECTION ( 'NONE',  ( 0.0000000000000000000, 0.0000000000000000000, 1.000000000000000000 ) ) ;
#180 = CARTESIAN_POINT ( 'NONE',  ( 7.250000000000006200, 0.0000000000000000000, 0.0000000000000000000 ) ) ;
#181 = DIRECTION ( 'NONE',  ( 1.000000000000000000, 0.0000000000000000000, 0.0000000000000000000 ) ) ;
#182 = CARTESIAN_POINT ( 'NONE',  ( 10.74999999999999600, 0.0000000000000000000, 0.0000000000000000000 ) ) ;
#183 = DIRECTION ( 'NONE',  ( 0.0000000000000000000, 0.0000000000000000000, 1.000000000000000000 ) ) ;
#184 = CARTESIAN_POINT ( 'NONE',  ( 6.149999999999999500, 6.000000000000001800, 0.0000000000000000000 ) ) ;
#185 = PLANE ( 'NONE',  #360 ) ;
#186 = PLANE ( 'NONE',  #299 ) ;
#187 = DIRECTION ( 'NONE',  ( 0.0000000000000000000, 0.0000000000000000000, -1.000000000000000000 ) ) ;
#188 = PLANE ( 'NONE',  #302 ) ;
#189 = DIRECTION ( 'NONE',  ( 0.0000000000000000000, 0.0000000000000000000, -1.000000000000000000 ) ) ;
#190 = DIRECTION ( 'NONE',  ( -1.000000000000000000, -0.0000000000000000000, -0.0000000000000000000 ) ) ;
#191 = DIRECTION ( 'NONE',  ( -1.000000000000000000, -0.0000000000000000000, -0.0000000000000000000 ) ) ;
#192 = CARTESIAN_POINT ( 'NONE',  ( -6.150000000000003000, 0.0000000000000000000, 0.0000000000000000000 ) ) ;
#193 = DIRECTION ( 'NONE',  ( 1.000000000000000000, 0.0000000000000000000, 0.0000000000000000000 ) ) ;
#194 = DIRECTION ( 'NONE',  ( -1.000000000000000000, -0.0000000000000000000, -0.0000000000000000000 ) ) ;
#195 = DIRECTION ( 'NONE',  ( 0.0000000000000000000, 0.0000000000000000000, -1.000000000000000000 ) ) ;
#196 = DIRECTION ( 'NONE',  ( 0.0000000000000000000, 0.0000000000000000000, 1.000000000000000000 ) ) ;
#197 = DIRECTION ( 'NONE',  ( -1.000000000000000000, -0.0000000000000000000, -0.0000000000000000000 ) ) ;
#198 = CARTESIAN_POINT ( 'NONE',  ( -7.250000000000006200, 0.0000000000000000000, 0.0000000000000000000 ) ) ;
#199 = DIRECTION ( 'NONE',  ( 1.000000000000000000, 0.0000000000000000000, 0.0000000000000000000 ) ) ;
#200 = DIRECTION ( 'NONE',  ( 0.0000000000000000000, 0.0000000000000000000, 1.000000000000000000 ) ) ;
#201 = DIRECTION ( 'NONE',  ( -1.000000000000000000, -0.0000000000000000000, -0.0000000000000000000 ) ) ;
#202 = CARTESIAN_POINT ( 'NONE',  ( 7.250000000000006200, 0.0000000000000000000, 0.0000000000000000000 ) ) ;
#203 = DIRECTION ( 'NONE',  ( 0.0000000000000000000, 0.0000000000000000000, 1.000000000000000000 ) ) ;
#204 = DIRECTION ( 'NONE',  ( 0.0000000000000000000, 0.0000000000000000000, -1.000000000000000000 ) ) ;
#205 = CARTESIAN_POINT ( 'NONE',  ( 6.150000000000003000, 0.0000000000000000000, 0.0000000000000000000 ) ) ;
#206 = DIRECTION ( 'NONE',  ( -1.000000000000000000, -0.0000000000000000000, -0.0000000000000000000 ) ) ;
#207 = CARTESIAN_POINT ( 'NONE',  ( -7.250000000000006200, 0.0000000000000000000, 0.0000000000000000000 ) ) ;
#208 = DIRECTION ( 'NONE',  ( 0.0000000000000000000, 0.0000000000000000000, 1.000000000000000000 ) ) ;
#209 = DIRECTION ( 'NONE',  ( -0.0000000000000000000, 0.0000000000000000000, 1.000000000000000000 ) ) ;
#210 = DIRECTION ( 'NONE',  ( 0.0000000000000000000, 0.0000000000000000000, 1.000000000000000000 ) ) ;
#211 = DIRECTION ( 'NONE',  ( -1.000000000000000000, -0.0000000000000000000, -0.0000000000000000000 ) ) ;
#212 =( NAMED_UNIT ( * ) SI_UNIT ( $, .STERADIAN. ) SOLID_ANGLE_UNIT ( ) );
#213 =( NAMED_UNIT ( * ) PLANE_ANGLE_UNIT ( ) SI_UNIT ( $, .RADIAN. ) );
#214 = VERTEX_POINT ( 'NONE', #243 ) ;
#215 = CARTESIAN_POINT ( 'NONE',  ( 11.00000000000000200, 0.0000000000000000000, 5.750000000000001800 ) ) ;
#216 = VERTEX_POINT ( 'NONE', #215 ) ;
#217 = CARTESIAN_POINT ( 'NONE',  ( 7.250000000000006200, 0.0000000000000000000, 6.000000000000001800 ) ) ;
#218 = CARTESIAN_POINT ( 'NONE',  ( -10.75000000000000200, 0.0000000000000000000, 0.0000000000000000000 ) ) ;
#219 = VERTEX_POINT ( 'NONE', #217 ) ;
#220 = APPROVAL_ROLE ( '' ) ;
#221 = APPROVAL_STATUS ( 'not_yet_approved' ) ;
#222 = DATE_TIME_ROLE ( 'classification_date' ) ;
#223 = PERSON_AND_ORGANIZATION_ROLE ( 'classification_officer' ) ;
#224 = SECURITY_CLASSIFICATION_LEVEL ( 'unclassified' ) ;
#225 =( LENGTH_UNIT ( ) NAMED_UNIT ( * ) SI_UNIT ( .MILLI., .METRE. ) );
#226 = CARTESIAN_POINT ( 'NONE',  ( -6.150000000000003000, 0.0000000000000000000, 5.750000000000000000 ) ) ;
#227 = VERTEX_POINT ( 'NONE', #226 ) ;
#228 = DIRECTION ( 'NONE',  ( -1.000000000000000000, -0.0000000000000000000, -0.0000000000000000000 ) ) ;
#229 = CARTESIAN_POINT ( 'NONE',  ( 7.250000000000006200, 0.0000000000000000000, 5.750000000000001800 ) ) ;
#230 = VERTEX_POINT ( 'NONE', #229 ) ;
#231 = CARTESIAN_POINT ( 'NONE',  ( -7.250000000000006200, 0.0000000000000000000, 6.000000000000000000 ) ) ;
#232 = CARTESIAN_POINT ( 'NONE',  ( 6.150000000000003000, 0.0000000000000000000, 5.750000000000001800 ) ) ;
#233 = CARTESIAN_POINT ( 'NONE',  ( -11.00000000000000400, 0.0000000000000000000, 0.0000000000000000000 ) ) ;
#234 = DIRECTION ( 'NONE',  ( -1.000000000000000000, -0.0000000000000000000, -0.0000000000000000000 ) ) ;
#235 = DIRECTION ( 'NONE',  ( 1.000000000000000000, 0.0000000000000000000, 0.0000000000000000000 ) ) ;
#236 = CARTESIAN_POINT ( 'NONE',  ( 0.0000000000000000000, 0.0000000000000000000, 0.0000000000000000000 ) ) ;
#237 = CARTESIAN_POINT ( 'NONE',  ( -6.150000000000003000, 0.0000000000000000000, 6.000000000000000000 ) ) ;
#238 = VERTEX_POINT ( 'NONE', #237 ) ;
#239 = CARTESIAN_POINT ( 'NONE',  ( -10.75000000000000200, 0.0000000000000000000, -6.000000000000000000 ) ) ;
#240 = VERTEX_POINT ( 'NONE', #239 ) ;
#241 = DIRECTION ( 'NONE',  ( -1.000000000000000000, -0.0000000000000000000, -0.0000000000000000000 ) ) ;
#242 = DIRECTION ( 'NONE',  ( -0.0000000000000000000, 0.0000000000000000000, 1.000000000000000000 ) ) ;
#243 = CARTESIAN_POINT ( 'NONE',  ( -7.250000000000006200, 0.0000000000000000000, 5.750000000000000000 ) ) ;
#244 = DIRECTION ( 'NONE',  ( -1.000000000000000000, 0.0000000000000000000, -0.0000000000000000000 ) ) ;
#245 = DIRECTION ( 'NONE',  ( -1.000000000000000000, -0.0000000000000000000, -0.0000000000000000000 ) ) ;
#246 = PERSON_AND_ORGANIZATION_ROLE ( 'design_owner' ) ;
#247 = MECHANICAL_CONTEXT ( 'NONE', #249, 'mechanical' ) ;
#248 = APPLICATION_PROTOCOL_DEFINITION ( 'international standard', 'config_control_design', 1994, #249 ) ;
#249 = APPLICATION_CONTEXT ( 'configuration controlled 3d designs of mechanical parts and assemblies' ) ;
#250 = PLANE ( 'NONE',  #150 ) ;
#251 = DIRECTION ( 'NONE',  ( 0.0000000000000000000, 0.0000000000000000000, -1.000000000000000000 ) ) ;
#252 = VERTEX_POINT ( 'NONE', #282 ) ;
#253 = CARTESIAN_POINT ( 'NONE',  ( 10.99999999999999600, 0.0000000000000000000, 2.500000000000002700 ) ) ;
#254 = CARTESIAN_POINT ( 'NONE',  ( -7.250000000000001800, 6.000000000000000000, 0.0000000000000000000 ) ) ;
#255 = VERTEX_POINT ( 'NONE', #253 ) ;
#256 = CARTESIAN_POINT ( 'NONE',  ( -11.00000000000000400, 0.0000000000000000000, 2.500000000000000000 ) ) ;
#257 = VERTEX_POINT ( 'NONE', #256 ) ;
#258 = CARTESIAN_POINT ( 'NONE',  ( -70.83368873109185400, 0.0000000000000000000, 0.0000000000000000000 ) ) ;
#259 = PLANE ( 'NONE',  #339 ) ;
#260 = CARTESIAN_POINT ( 'NONE',  ( -6.150000000000001200, 5.750000000000000000, 0.0000000000000000000 ) ) ;
#261 = DIRECTION ( 'NONE',  ( -1.000000000000000000, 0.0000000000000000000, -0.0000000000000000000 ) ) ;
#262 = DIRECTION ( 'NONE',  ( 1.000000000000000000, 0.0000000000000000000, 0.0000000000000000000 ) ) ;
#263 = DIRECTION ( 'NONE',  ( -1.000000000000000000, -0.0000000000000000000, -0.0000000000000000000 ) ) ;
#264 = CARTESIAN_POINT ( 'NONE',  ( -11.00000000000000200, 2.500000000000000000, 0.0000000000000000000 ) ) ;
#265 = DIRECTION ( 'NONE',  ( -1.000000000000000000, -0.0000000000000000000, -0.0000000000000000000 ) ) ;
#266 = DIRECTION ( 'NONE',  ( 0.0000000000000000000, 0.0000000000000000000, -1.000000000000000000 ) ) ;
#267 = DIRECTION ( 'NONE',  ( 0.0000000000000000000, 0.0000000000000000000, 1.000000000000000000 ) ) ;
#268 = CARTESIAN_POINT ( 'NONE',  ( -70.83368873109185400, 0.0000000000000000000, 0.0000000000000000000 ) ) ;
#269 = DIRECTION ( 'NONE',  ( 0.0000000000000000000, 0.0000000000000000000, 1.000000000000000000 ) ) ;
#270 = VERTEX_POINT ( 'NONE', #232 ) ;
#271 = DIRECTION ( 'NONE',  ( 0.0000000000000000000, 0.0000000000000000000, 1.000000000000000000 ) ) ;
#272 = VERTEX_POINT ( 'NONE', #231 ) ;
#273 = PERSON_AND_ORGANIZATION_ROLE ( 'creator' ) ;
#274 = APPROVAL_ROLE ( '' ) ;
#275 = APPROVAL_STATUS ( 'not_yet_approved' ) ;
#276 = APPLICATION_PROTOCOL_DEFINITION ( 'international standard', 'config_control_design', 1994, #277 ) ;
#277 = APPLICATION_CONTEXT ( 'configuration controlled 3d designs of mechanical parts and assemblies' ) ;
#278 = CARTESIAN_POINT ( 'NONE',  ( -11.00000000000000200, 0.0000000000000000000, -5.750000000000000000 ) ) ;
#279 = VERTEX_POINT ( 'NONE', #278 ) ;
#280 = CARTESIAN_POINT ( 'NONE',  ( 6.150000000000003000, 0.0000000000000000000, 6.000000000000001800 ) ) ;
#281 = VERTEX_POINT ( 'NONE', #280 ) ;
#282 = CARTESIAN_POINT ( 'NONE',  ( 10.74999999999999600, 0.0000000000000000000, 6.000000000000001800 ) ) ;
#283 = CARTESIAN_POINT ( 'NONE',  ( 11.00000000000000200, 0.0000000000000000000, 0.0000000000000000000 ) ) ;
#284 = DIRECTION ( 'NONE',  ( 1.000000000000000000, 0.0000000000000000000, 0.0000000000000000000 ) ) ;
#285 = DIRECTION ( 'NONE',  ( 0.0000000000000000000, 0.0000000000000000000, 1.000000000000000000 ) ) ;
#286 = DIRECTION ( 'NONE',  ( -1.000000000000000000, -0.0000000000000000000, -0.0000000000000000000 ) ) ;
#287 = PERSON_AND_ORGANIZATION_ROLE ( 'design_supplier' ) ;
#288 = PERSON_AND_ORGANIZATION_ROLE ( 'creator' ) ;
#289 = APPROVAL_ROLE ( '' ) ;
#290 = APPROVAL_STATUS ( 'not_yet_approved' ) ;
#291 = DATE_TIME_ROLE ( 'creation_date' ) ;
#292 = PLANE ( 'NONE',  #296 ) ;
#293 = CARTESIAN_POINT ( 'NONE',  ( 10.99999999999999600, 0.0000000000000000000, 0.0000000000000000000 ) ) ;
#294 = DIRECTION ( 'NONE',  ( -1.000000000000000000, -0.0000000000000000000, -0.0000000000000000000 ) ) ;
#295 = CARTESIAN_POINT ( 'NONE',  ( -70.83368873109185400, 0.0000000000000000000, 0.0000000000000000000 ) ) ;
#296 = AXIS2_PLACEMENT_3D ( 'NONE', #171, #261, #209 ) ;
#297 = AXIS2_PLACEMENT_3D ( 'NONE', #163, #241, #267 ) ;
#298 = AXIS2_PLACEMENT_3D ( 'NONE', #170, #156, #159 ) ;
#299 = AXIS2_PLACEMENT_3D ( 'NONE', #178, #199, #204 ) ;
#300 = AXIS2_PLACEMENT_3D ( 'NONE', #202, #263, #179 ) ;
#301 = AXIS2_PLACEMENT_3D ( 'NONE', #169, #161, #187 ) ;
#302 = AXIS2_PLACEMENT_3D ( 'NONE', #264, #284, #189 ) ;
#303 = AXIS2_PLACEMENT_3D ( 'NONE', #258, #294, #157 ) ;
#304 = AXIS2_PLACEMENT_3D ( 'NONE', #268, #206, #172 ) ;
#305 = AXIS2_PLACEMENT_3D ( 'NONE', #173, #190, #200 ) ;
#306 = AXIS2_PLACEMENT_3D ( 'NONE', #283, #193, #203 ) ;
#307 = AXIS2_PLACEMENT_3D ( 'NONE', #198, #211, #183 ) ;
#308 = AXIS2_PLACEMENT_3D ( 'NONE', #218, #262, #251 ) ;
#309 = AXIS2_PLACEMENT_3D ( 'NONE', #192, #166, #177 ) ;
#310 = AXIS2_PLACEMENT_3D ( 'NONE', #233, #201, #158 ) ;
#311 = AXIS2_PLACEMENT_3D ( 'NONE', #293, #197, #174 ) ;
#312 = AXIS2_PLACEMENT_3D ( 'NONE', #182, #175, #271 ) ;
#313 = AXIS2_PLACEMENT_3D ( 'NONE', #205, #191, #196 ) ;
#314 = AXIS2_PLACEMENT_3D ( 'NONE', #153, #194, #195 ) ;
#315 = AXIS2_PLACEMENT_3D ( 'NONE', #180, #286, #285 ) ;
#316 = AXIS2_PLACEMENT_3D ( 'NONE', #176, #265, #208 ) ;
#317 = AXIS2_PLACEMENT_3D ( 'NONE', #236, #269, #235 ) ;
#318 = CC_DESIGN_PERSON_AND_ORGANIZATION_ASSIGNMENT ( #33, #246, ( #363 ) ) ;
#319 = PRODUCT_DEFINITION ( 'UNKNOWN', '', #324, #2 ) ;
#320 = APPROVAL ( #275, 'UNSPECIFIED' ) ;
#321 = CC_DESIGN_APPROVAL ( #320, ( #319 ) ) ;
#322 = CC_DESIGN_PERSON_AND_ORGANIZATION_ASSIGNMENT ( #58, #273, ( #319 ) ) ;
#323 = CC_DESIGN_DATE_AND_TIME_ASSIGNMENT ( #30, #291, ( #319 ) ) ;
#324 = PRODUCT_DEFINITION_FORMATION_WITH_SPECIFIED_SOURCE ( 'ANY', '', #363, .NOT_KNOWN. ) ;
#325 = APPROVAL ( #290, 'UNSPECIFIED' ) ;
#326 = CC_DESIGN_APPROVAL ( #325, ( #324 ) ) ;
#327 = CC_DESIGN_PERSON_AND_ORGANIZATION_ASSIGNMENT ( #54, #288, ( #324 ) ) ;
#328 = CC_DESIGN_PERSON_AND_ORGANIZATION_ASSIGNMENT ( #52, #287, ( #324 ) ) ;
#329 = SECURITY_CLASSIFICATION ( '', '', #224 ) ;
#330 = CC_DESIGN_PERSON_AND_ORGANIZATION_ASSIGNMENT ( #63, #223, ( #329 ) ) ;
#331 = CC_DESIGN_DATE_AND_TIME_ASSIGNMENT ( #47, #222, ( #329 ) ) ;
#332 = APPROVAL ( #221, 'UNSPECIFIED' ) ;
#333 = CC_DESIGN_APPROVAL ( #332, ( #329 ) ) ;
#334 = CC_DESIGN_SECURITY_CLASSIFICATION ( #329, ( #324 ) ) ;
#335 = PRODUCT_RELATED_PRODUCT_CATEGORY ( 'detail', '', ( #363 ) ) ;
#336 = ADVANCED_BREP_SHAPE_REPRESENTATION ( 'LME5UU', ( #338, #317 ), #64 ) ;
#337 = UNCERTAINTY_MEASURE_WITH_UNIT (LENGTH_MEASURE( 1.000000000000000100E-005 ), #225, 'distance_accuracy_value', 'NONE');
#338 = MANIFOLD_SOLID_BREP ( 'Fillet1', #73 ) ;
#339 = AXIS2_PLACEMENT_3D ( 'NONE', #254, #244, #242 ) ;
#340 = ADVANCED_FACE ( 'NONE', ( #84, #98 ), #97, .T. ) ;
#341 = ADVANCED_FACE ( 'NONE', ( #15, #9 ), #250, .F. ) ;
#342 = ADVANCED_FACE ( 'NONE', ( #74, #144 ), #259, .F. ) ;
#343 = ADVANCED_FACE ( 'NONE', ( #17, #145 ), #185, .F. ) ;
#344 = ADVANCED_FACE ( 'NONE', ( #99, #70 ), #122, .T. ) ;
#345 = ADVANCED_FACE ( 'NONE', ( #102, #126 ), #292, .F. ) ;
#346 = ADVANCED_FACE ( 'NONE', ( #137, #93 ), #119, .T. ) ;
#347 = ADVANCED_FACE ( 'NONE', ( #91, #128 ), #186, .F. ) ;
#348 = ADVANCED_FACE ( 'NONE', ( #127, #95 ), #188, .F. ) ;
#349 = ADVANCED_FACE ( 'NONE', ( #83, #118 ), #132, .T. ) ;
#350 = ADVANCED_FACE ( 'NONE', ( #71, #81 ), #75, .F. ) ;
#351 = ADVANCED_FACE ( 'NONE', ( #108, #78 ), #76, .T. ) ;
#352 = ADVANCED_FACE ( 'NONE', ( #80, #14 ), #123, .T. ) ;
#353 = ADVANCED_FACE ( 'NONE', ( #79, #60 ), #13, .T. ) ;
#354 = EDGE_CURVE ( 'NONE', #219, #219, #117, .T. ) ;
#355 = EDGE_CURVE ( 'NONE', #216, #216, #18, .T. ) ;
#356 = EDGE_CURVE ( 'NONE', #214, #214, #90, .T. ) ;
#357 = EDGE_CURVE ( 'NONE', #240, #240, #89, .T. ) ;
#358 = EDGE_CURVE ( 'NONE', #238, #238, #38, .T. ) ;
#359 = EDGE_CURVE ( 'NONE', #257, #257, #125, .T. ) ;
#360 = AXIS2_PLACEMENT_3D ( 'NONE', #184, #164, #168 ) ;
#361 = EDGE_CURVE ( 'NONE', #255, #255, #121, .T. ) ;
#362 = AXIS2_PLACEMENT_3D ( 'NONE', #207, #245, #165 ) ;
#363 = PRODUCT ( 'LME5UU', 'LME5UU', '', ( #247 ) ) ;
#364 = PERSON ( 'UNSPECIFIED', 'UNSPECIFIED', 'UNSPECIFIED', ('UNSPECIFIED'), ('UNSPECIFIED'), ('UNSPECIFIED') ) ;
#365 = EDGE_CURVE ( 'NONE', #252, #252, #130, .T. ) ;
#366 = EDGE_CURVE ( 'NONE', #281, #281, #87, .T. ) ;
#367 = EDGE_CURVE ( 'NONE', #279, #279, #105, .T. ) ;
#368 = EDGE_CURVE ( 'NONE', #230, #230, #86, .T. ) ;
#369 = EDGE_CURVE ( 'NONE', #227, #227, #116, .T. ) ;
ENDSEC;
END-ISO-10303-21;
