ISO-10303-21;
HEADER;
FILE_DESCRIPTION (( 'STEP AP203' ),
    '1' );
FILE_NAME ('LM4.STEP',
    '2016-05-04T13:53:33',
    ( '' ),
    ( '' ),
    'SwSTEP 2.0',
    'SolidWorks 2010',
    '' );
FILE_SCHEMA (( 'CONFIG_CONTROL_DESIGN' ));
ENDSEC;

DATA;
#1 = MANIFOLD_SOLID_BREP ( 'Revolve1', #31 ) ;
#2 = ADVANCED_BREP_SHAPE_REPRESENTATION ( 'LM4', ( #1, #141 ), #8 ) ;
#3 = UNCERTAINTY_MEASURE_WITH_UNIT (LENGTH_MEASURE( 1.000000000000000100E-005 ), #88, 'distance_accuracy_value', 'NONE');
#4 = FACE_OUTER_BOUND ( 'NONE', #5, .T. ) ;
#5 = EDGE_LOOP ( 'NONE', ( #49 ) ) ;
#6 = EDGE_LOOP ( 'NONE', ( #70 ) ) ;
#7 = PERSON_AND_ORGANIZATION ( #132, #65 ) ;
#8 =( GEOMETRIC_REPRESENTATION_CONTEXT ( 3 ) GLOBAL_UNCERTAINTY_ASSIGNED_CONTEXT ( ( #3 ) ) GLOBAL_UNIT_ASSIGNED_CONTEXT ( ( #88, #73, #91 ) ) REPRESENTATION_CONTEXT ( 'NONE', 'WORKASPACE' ) );
#9 = CIRCLE ( 'NONE', #157, 4.000000000000000000 ) ;
#10 = PERSON_AND_ORGANIZATION ( #132, #65 ) ;
#11 = APPROVAL_DATE_TIME ( #41, #144 ) ;
#12 = SHAPE_DEFINITION_REPRESENTATION ( #134, #2 ) ;
#13 = CIRCLE ( 'NONE', #149, 2.000000000000001300 ) ;
#14 = FACE_BOUND ( 'NONE', #61, .T. ) ;
#15 = CALENDAR_DATE ( 2016, 4, 5 ) ;
#16 = LOCAL_TIME ( 16, 53, 33.00000000000000000, #52 ) ;
#17 = EDGE_LOOP ( 'NONE', ( #19 ) ) ;
#18 = CYLINDRICAL_SURFACE ( 'NONE', #148, 4.000000000000000900 ) ;
#19 = ORIENTED_EDGE ( 'NONE', *, *, #154, .F. ) ;
#20 = FACE_OUTER_BOUND ( 'NONE', #30, .T. ) ;
#21 = EDGE_LOOP ( 'NONE', ( #36 ) ) ;
#22 = DATE_AND_TIME ( #26, #56 ) ;
#23 = CALENDAR_DATE ( 2016, 4, 5 ) ;
#24 = LOCAL_TIME ( 16, 53, 33.00000000000000000, #55 ) ;
#25 = CYLINDRICAL_SURFACE ( 'NONE', #145, 2.000000000000000900 ) ;
#26 = CALENDAR_DATE ( 2016, 4, 5 ) ;
#27 = FACE_OUTER_BOUND ( 'NONE', #17, .T. ) ;
#28 = CALENDAR_DATE ( 2016, 4, 5 ) ;
#29 = COORDINATED_UNIVERSAL_TIME_OFFSET ( 2, 0, .AHEAD. ) ;
#30 = EDGE_LOOP ( 'NONE', ( #60 ) ) ;
#31 = CLOSED_SHELL ( 'NONE', ( #136, #137, #138, #135 ) ) ;
#32 = PERSON_AND_ORGANIZATION ( #132, #65 ) ;
#33 = FACE_OUTER_BOUND ( 'NONE', #44, .T. ) ;
#34 = FACE_OUTER_BOUND ( 'NONE', #21, .T. ) ;
#35 = ORIENTED_EDGE ( 'NONE', *, *, #158, .F. ) ;
#36 = ORIENTED_EDGE ( 'NONE', *, *, #158, .T. ) ;
#37 = APPROVAL_DATE_TIME ( #22, #139 ) ;
#38 = PERSON_AND_ORGANIZATION ( #132, #65 ) ;
#39 = LOCAL_TIME ( 16, 53, 33.00000000000000000, #58 ) ;
#40 = PERSON_AND_ORGANIZATION ( #132, #65 ) ;
#41 = DATE_AND_TIME ( #63, #39 ) ;
#42 = APPROVAL_PERSON_ORGANIZATION ( #57, #169, #83 ) ;
#43 = FACE_BOUND ( 'NONE', #6, .T. ) ;
#44 = EDGE_LOOP ( 'NONE', ( #53 ) ) ;
#45 = COORDINATED_UNIVERSAL_TIME_OFFSET ( 2, 0, .AHEAD. ) ;
#46 = DATE_AND_TIME ( #28, #24 ) ;
#47 = APPROVAL_PERSON_ORGANIZATION ( #40, #144, #107 ) ;
#48 = ORIENTED_EDGE ( 'NONE', *, *, #140, .F. ) ;
#49 = ORIENTED_EDGE ( 'NONE', *, *, #143, .F. ) ;
#50 = CIRCLE ( 'NONE', #142, 2.000000000000000000 ) ;
#51 = DATE_AND_TIME ( #15, #16 ) ;
#52 = COORDINATED_UNIVERSAL_TIME_OFFSET ( 2, 0, .AHEAD. ) ;
#53 = ORIENTED_EDGE ( 'NONE', *, *, #154, .T. ) ;
#54 = PERSON_AND_ORGANIZATION ( #132, #65 ) ;
#55 = COORDINATED_UNIVERSAL_TIME_OFFSET ( 2, 0, .AHEAD. ) ;
#56 = LOCAL_TIME ( 16, 53, 33.00000000000000000, #29 ) ;
#57 = PERSON_AND_ORGANIZATION ( #132, #65 ) ;
#58 = COORDINATED_UNIVERSAL_TIME_OFFSET ( 2, 0, .AHEAD. ) ;
#59 = FACE_OUTER_BOUND ( 'NONE', #66, .T. ) ;
#60 = ORIENTED_EDGE ( 'NONE', *, *, #143, .T. ) ;
#61 = EDGE_LOOP ( 'NONE', ( #35 ) ) ;
#62 = PERSON_AND_ORGANIZATION ( #132, #65 ) ;
#63 = CALENDAR_DATE ( 2016, 4, 5 ) ;
#64 = LOCAL_TIME ( 16, 53, 33.00000000000000000, #45 ) ;
#65 = ORGANIZATION ( 'UNSPECIFIED', 'UNSPECIFIED', '' ) ;
#66 = EDGE_LOOP ( 'NONE', ( #48 ) ) ;
#67 = APPROVAL_PERSON_ORGANIZATION ( #7, #139, #97 ) ;
#68 = APPROVAL_DATE_TIME ( #51, #169 ) ;
#69 = DATE_AND_TIME ( #23, #64 ) ;
#70 = ORIENTED_EDGE ( 'NONE', *, *, #140, .T. ) ;
#71 = CIRCLE ( 'NONE', #168, 4.000000000000001800 ) ;
#72 = DIRECTION ( 'NONE',  ( 0.0000000000000000000, 0.0000000000000000000, 1.000000000000000000 ) ) ;
#73 =( NAMED_UNIT ( * ) PLANE_ANGLE_UNIT ( ) SI_UNIT ( $, .RADIAN. ) );
#74 = CARTESIAN_POINT ( 'NONE',  ( 6.000000000000005300, 0.0000000000000000000, 2.000000000000001300 ) ) ;
#75 = CARTESIAN_POINT ( 'NONE',  ( -70.83368873109185400, 0.0000000000000000000, 0.0000000000000000000 ) ) ;
#76 = APPLICATION_PROTOCOL_DEFINITION ( 'international standard', 'config_control_design', 1994, #129 ) ;
#77 = DATE_TIME_ROLE ( 'creation_date' ) ;
#78 = DATE_TIME_ROLE ( 'classification_date' ) ;
#79 = DIRECTION ( 'NONE',  ( -1.000000000000000000, 0.0000000000000000000, -0.0000000000000000000 ) ) ;
#80 = VERTEX_POINT ( 'NONE', #81 ) ;
#81 = CARTESIAN_POINT ( 'NONE',  ( -6.000000000000005300, 0.0000000000000000000, 2.000000000000000000 ) ) ;
#82 = CARTESIAN_POINT ( 'NONE',  ( 5.999999999999999100, 4.000000000000001800, 0.0000000000000000000 ) ) ;
#83 = APPROVAL_ROLE ( '' ) ;
#84 = CARTESIAN_POINT ( 'NONE',  ( -6.000000000000005300, 0.0000000000000000000, 0.0000000000000000000 ) ) ;
#85 = PERSON_AND_ORGANIZATION_ROLE ( 'classification_officer' ) ;
#86 = SECURITY_CLASSIFICATION_LEVEL ( 'unclassified' ) ;
#87 = CARTESIAN_POINT ( 'NONE',  ( -70.83368873109185400, 0.0000000000000000000, 0.0000000000000000000 ) ) ;
#88 =( LENGTH_UNIT ( ) NAMED_UNIT ( * ) SI_UNIT ( .MILLI., .METRE. ) );
#89 = VERTEX_POINT ( 'NONE', #106 ) ;
#90 = DIRECTION ( 'NONE',  ( -1.000000000000000000, -0.0000000000000000000, -0.0000000000000000000 ) ) ;
#91 =( NAMED_UNIT ( * ) SI_UNIT ( $, .STERADIAN. ) SOLID_ANGLE_UNIT ( ) );
#92 = DIRECTION ( 'NONE',  ( 0.0000000000000000000, 0.0000000000000000000, 1.000000000000000000 ) ) ;
#93 = APPLICATION_CONTEXT ( 'configuration controlled 3d designs of mechanical parts and assemblies' ) ;
#94 = CARTESIAN_POINT ( 'NONE',  ( -6.000000000000000000, 2.000000000000000000, 0.0000000000000000000 ) ) ;
#95 = DIRECTION ( 'NONE',  ( -1.000000000000000000, -0.0000000000000000000, -0.0000000000000000000 ) ) ;
#96 = PERSON_AND_ORGANIZATION_ROLE ( 'design_supplier' ) ;
#97 = APPROVAL_ROLE ( '' ) ;
#98 = CARTESIAN_POINT ( 'NONE',  ( -6.000000000000005300, 0.0000000000000000000, 4.000000000000000000 ) ) ;
#99 = DIRECTION ( 'NONE',  ( -0.0000000000000000000, 0.0000000000000000000, 1.000000000000000000 ) ) ;
#100 = DIRECTION ( 'NONE',  ( 0.0000000000000000000, 0.0000000000000000000, 1.000000000000000000 ) ) ;
#101 = APPROVAL_STATUS ( 'not_yet_approved' ) ;
#102 = CARTESIAN_POINT ( 'NONE',  ( -6.000000000000005300, 0.0000000000000000000, 0.0000000000000000000 ) ) ;
#103 = DIRECTION ( 'NONE',  ( 0.0000000000000000000, 0.0000000000000000000, 1.000000000000000000 ) ) ;
#104 = PLANE ( 'NONE',  #147 ) ;
#105 = VERTEX_POINT ( 'NONE', #98 ) ;
#106 = CARTESIAN_POINT ( 'NONE',  ( 6.000000000000005300, 0.0000000000000000000, 4.000000000000001800 ) ) ;
#107 = APPROVAL_ROLE ( '' ) ;
#108 = PERSON_AND_ORGANIZATION_ROLE ( 'creator' ) ;
#109 = DIRECTION ( 'NONE',  ( -1.000000000000000000, -0.0000000000000000000, -0.0000000000000000000 ) ) ;
#110 = DIRECTION ( 'NONE',  ( -1.000000000000000000, -0.0000000000000000000, -0.0000000000000000000 ) ) ;
#111 = DIRECTION ( 'NONE',  ( 0.0000000000000000000, 0.0000000000000000000, 1.000000000000000000 ) ) ;
#112 = DIRECTION ( 'NONE',  ( 1.000000000000000000, 0.0000000000000000000, 0.0000000000000000000 ) ) ;
#113 = DIRECTION ( 'NONE',  ( -1.000000000000000000, -0.0000000000000000000, -0.0000000000000000000 ) ) ;
#114 = PLANE ( 'NONE',  #161 ) ;
#115 = DIRECTION ( 'NONE',  ( 1.000000000000000000, 0.0000000000000000000, 0.0000000000000000000 ) ) ;
#116 = CARTESIAN_POINT ( 'NONE',  ( 0.0000000000000000000, 0.0000000000000000000, 0.0000000000000000000 ) ) ;
#117 = APPROVAL_STATUS ( 'not_yet_approved' ) ;
#118 = DIRECTION ( 'NONE',  ( 0.0000000000000000000, 0.0000000000000000000, -1.000000000000000000 ) ) ;
#119 = APPLICATION_PROTOCOL_DEFINITION ( 'international standard', 'config_control_design', 1994, #93 ) ;
#120 = PERSON_AND_ORGANIZATION_ROLE ( 'creator' ) ;
#121 = DIRECTION ( 'NONE',  ( 0.0000000000000000000, 0.0000000000000000000, 1.000000000000000000 ) ) ;
#122 = APPROVAL_STATUS ( 'not_yet_approved' ) ;
#123 = PERSON_AND_ORGANIZATION_ROLE ( 'design_owner' ) ;
#124 = MECHANICAL_CONTEXT ( 'NONE', #129, 'mechanical' ) ;
#125 = CARTESIAN_POINT ( 'NONE',  ( 6.000000000000005300, 0.0000000000000000000, 0.0000000000000000000 ) ) ;
#126 = DIRECTION ( 'NONE',  ( 0.0000000000000000000, 0.0000000000000000000, 1.000000000000000000 ) ) ;
#127 = DIRECTION ( 'NONE',  ( -1.000000000000000000, -0.0000000000000000000, -0.0000000000000000000 ) ) ;
#128 = VERTEX_POINT ( 'NONE', #74 ) ;
#129 = APPLICATION_CONTEXT ( 'configuration controlled 3d designs of mechanical parts and assemblies' ) ;
#130 = CARTESIAN_POINT ( 'NONE',  ( 6.000000000000005300, 0.0000000000000000000, 0.0000000000000000000 ) ) ;
#131 = PRODUCT ( 'LM4', 'LM4', '', ( #124 ) ) ;
#132 = PERSON ( 'UNSPECIFIED', 'UNSPECIFIED', 'UNSPECIFIED', ('UNSPECIFIED'), ('UNSPECIFIED'), ('UNSPECIFIED') ) ;
#133 = DESIGN_CONTEXT ( 'detailed design', #93, 'design' ) ;
#134 = PRODUCT_DEFINITION_SHAPE ( 'NONE', 'NONE',  #163 ) ;
#135 = ADVANCED_FACE ( 'NONE', ( #14, #20 ), #104, .F. ) ;
#136 = ADVANCED_FACE ( 'NONE', ( #4, #33 ), #18, .T. ) ;
#137 = ADVANCED_FACE ( 'NONE', ( #27, #43 ), #114, .F. ) ;
#138 = ADVANCED_FACE ( 'NONE', ( #59, #34 ), #25, .F. ) ;
#139 = APPROVAL ( #117, 'UNSPECIFIED' ) ;
#140 = EDGE_CURVE ( 'NONE', #128, #128, #13, .T. ) ;
#141 = AXIS2_PLACEMENT_3D ( 'NONE', #116, #111, #112 ) ;
#142 = AXIS2_PLACEMENT_3D ( 'NONE', #84, #90, #103 ) ;
#143 = EDGE_CURVE ( 'NONE', #105, #105, #9, .T. ) ;
#144 = APPROVAL ( #122, 'UNSPECIFIED' ) ;
#145 = AXIS2_PLACEMENT_3D ( 'NONE', #87, #127, #121 ) ;
#146 = CC_DESIGN_PERSON_AND_ORGANIZATION_ASSIGNMENT ( #38, #108, ( #152 ) ) ;
#147 = AXIS2_PLACEMENT_3D ( 'NONE', #94, #115, #118 ) ;
#148 = AXIS2_PLACEMENT_3D ( 'NONE', #75, #109, #126 ) ;
#149 = AXIS2_PLACEMENT_3D ( 'NONE', #130, #113, #100 ) ;
#150 = CC_DESIGN_APPROVAL ( #139, ( #152 ) ) ;
#151 = CC_DESIGN_APPROVAL ( #144, ( #163 ) ) ;
#152 = PRODUCT_DEFINITION_FORMATION_WITH_SPECIFIED_SOURCE ( 'ANY', '', #131, .NOT_KNOWN. ) ;
#153 = CC_DESIGN_PERSON_AND_ORGANIZATION_ASSIGNMENT ( #10, #96, ( #152 ) ) ;
#154 = EDGE_CURVE ( 'NONE', #89, #89, #71, .T. ) ;
#155 = CC_DESIGN_APPROVAL ( #169, ( #165 ) ) ;
#156 = CC_DESIGN_DATE_AND_TIME_ASSIGNMENT ( #69, #77, ( #163 ) ) ;
#157 = AXIS2_PLACEMENT_3D ( 'NONE', #102, #95, #72 ) ;
#158 = EDGE_CURVE ( 'NONE', #80, #80, #50, .T. ) ;
#159 = CC_DESIGN_PERSON_AND_ORGANIZATION_ASSIGNMENT ( #62, #120, ( #163 ) ) ;
#160 = CC_DESIGN_DATE_AND_TIME_ASSIGNMENT ( #46, #78, ( #165 ) ) ;
#161 = AXIS2_PLACEMENT_3D ( 'NONE', #82, #79, #99 ) ;
#162 = PRODUCT_RELATED_PRODUCT_CATEGORY ( 'detail', '', ( #131 ) ) ;
#163 = PRODUCT_DEFINITION ( 'UNKNOWN', '', #152, #133 ) ;
#164 = CC_DESIGN_SECURITY_CLASSIFICATION ( #165, ( #152 ) ) ;
#165 = SECURITY_CLASSIFICATION ( '', '', #86 ) ;
#166 = CC_DESIGN_PERSON_AND_ORGANIZATION_ASSIGNMENT ( #54, #123, ( #131 ) ) ;
#167 = CC_DESIGN_PERSON_AND_ORGANIZATION_ASSIGNMENT ( #32, #85, ( #165 ) ) ;
#168 = AXIS2_PLACEMENT_3D ( 'NONE', #125, #110, #92 ) ;
#169 = APPROVAL ( #101, 'UNSPECIFIED' ) ;
ENDSEC;
END-ISO-10303-21;
