ISO-10303-21;
HEADER;
FILE_DESCRIPTION (( 'STEP AP203' ),
    '1' );
FILE_NAME ('LM25UU.STEP',
    '2016-05-04T14:05:22',
    ( '' ),
    ( '' ),
    'SwSTEP 2.0',
    'SolidWorks 2010',
    '' );
FILE_SCHEMA (( 'CONFIG_CONTROL_DESIGN' ));
ENDSEC;

DATA;
#1 = PRODUCT ( 'LM25UU', 'LM25UU', '', ( #234 ) ) ;
#2 = AXIS2_PLACEMENT_3D ( 'NONE', #348, #282, #344 ) ;
#3 = AXIS2_PLACEMENT_3D ( 'NONE', #241, #351, #357 ) ;
#4 = AXIS2_PLACEMENT_3D ( 'NONE', #359, #342, #343 ) ;
#5 = AXIS2_PLACEMENT_3D ( 'NONE', #295, #349, #345 ) ;
#6 = AXIS2_PLACEMENT_3D ( 'NONE', #363, #360, #350 ) ;
#7 = AXIS2_PLACEMENT_3D ( 'NONE', #366, #347, #346 ) ;
#8 = AXIS2_PLACEMENT_3D ( 'NONE', #352, #337, #335 ) ;
#9 = AXIS2_PLACEMENT_3D ( 'NONE', #275, #365, #354 ) ;
#10 = AXIS2_PLACEMENT_3D ( 'NONE', #314, #237, #353 ) ;
#11 = AXIS2_PLACEMENT_3D ( 'NONE', #277, #291, #356 ) ;
#12 = AXIS2_PLACEMENT_3D ( 'NONE', #364, #319, #325 ) ;
#13 = EDGE_CURVE ( 'NONE', #279, #279, #191, .T. ) ;
#14 = EDGE_CURVE ( 'NONE', #278, #278, #155, .T. ) ;
#15 = EDGE_CURVE ( 'NONE', #271, #271, #137, .T. ) ;
#16 = EDGE_CURVE ( 'NONE', #269, #269, #134, .T. ) ;
#17 = EDGE_CURVE ( 'NONE', #267, #267, #132, .T. ) ;
#18 = EDGE_CURVE ( 'NONE', #264, #264, #118, .T. ) ;
#19 = AXIS2_PLACEMENT_3D ( 'NONE', #331, #358, #341 ) ;
#20 = AXIS2_PLACEMENT_3D ( 'NONE', #308, #323, #306 ) ;
#21 = EDGE_CURVE ( 'NONE', #262, #262, #181, .T. ) ;
#22 = EDGE_CURVE ( 'NONE', #240, #240, #142, .T. ) ;
#23 = EDGE_CURVE ( 'NONE', #258, #258, #140, .T. ) ;
#24 = EDGE_CURVE ( 'NONE', #256, #256, #123, .T. ) ;
#25 = EDGE_CURVE ( 'NONE', #254, #254, #121, .T. ) ;
#26 = AXIS2_PLACEMENT_3D ( 'NONE', #303, #305, #310 ) ;
#27 = EDGE_CURVE ( 'NONE', #252, #252, #120, .T. ) ;
#28 = EDGE_CURVE ( 'NONE', #250, #250, #131, .T. ) ;
#29 = EDGE_CURVE ( 'NONE', #248, #248, #129, .T. ) ;
#30 = AXIS2_PLACEMENT_3D ( 'NONE', #355, #336, #334 ) ;
#31 = AXIS2_PLACEMENT_3D ( 'NONE', #312, #313, #309 ) ;
#32 = AXIS2_PLACEMENT_3D ( 'NONE', #338, #339, #340 ) ;
#33 = AXIS2_PLACEMENT_3D ( 'NONE', #330, #327, #326 ) ;
#34 = AXIS2_PLACEMENT_3D ( 'NONE', #333, #322, #321 ) ;
#35 = AXIS2_PLACEMENT_3D ( 'NONE', #318, #328, #324 ) ;
#36 = AXIS2_PLACEMENT_3D ( 'NONE', #315, #316, #317 ) ;
#37 = AXIS2_PLACEMENT_3D ( 'NONE', #302, #304, #320 ) ;
#38 = AXIS2_PLACEMENT_3D ( 'NONE', #301, #298, #297 ) ;
#39 = AXIS2_PLACEMENT_3D ( 'NONE', #294, #311, #307 ) ;
#40 = AXIS2_PLACEMENT_3D ( 'NONE', #293, #289, #288 ) ;
#41 = AXIS2_PLACEMENT_3D ( 'NONE', #286, #299, #296 ) ;
#42 = AXIS2_PLACEMENT_3D ( 'NONE', #285, #281, #280 ) ;
#43 = AXIS2_PLACEMENT_3D ( 'NONE', #287, #276, #274 ) ;
#44 = AXIS2_PLACEMENT_3D ( 'NONE', #242, #283, #238 ) ;
#45 = CC_DESIGN_PERSON_AND_ORGANIZATION_ASSIGNMENT ( #198, #266, ( #1 ) ) ;
#46 = PRODUCT_DEFINITION ( 'UNKNOWN', '', #51, #222 ) ;
#47 = APPROVAL ( #231, 'UNSPECIFIED' ) ;
#48 = CC_DESIGN_APPROVAL ( #47, ( #46 ) ) ;
#49 = CC_DESIGN_PERSON_AND_ORGANIZATION_ASSIGNMENT ( #65, #243, ( #46 ) ) ;
#50 = CC_DESIGN_DATE_AND_TIME_ASSIGNMENT ( #72, #229, ( #46 ) ) ;
#51 = PRODUCT_DEFINITION_FORMATION_WITH_SPECIFIED_SOURCE ( 'ANY', '', #1, .NOT_KNOWN. ) ;
#52 = APPROVAL ( #228, 'UNSPECIFIED' ) ;
#53 = CC_DESIGN_APPROVAL ( #52, ( #51 ) ) ;
#54 = CC_DESIGN_PERSON_AND_ORGANIZATION_ASSIGNMENT ( #95, #226, ( #51 ) ) ;
#55 = CC_DESIGN_PERSON_AND_ORGANIZATION_ASSIGNMENT ( #102, #225, ( #51 ) ) ;
#56 = SECURITY_CLASSIFICATION ( '', '', #224 ) ;
#57 = CC_DESIGN_PERSON_AND_ORGANIZATION_ASSIGNMENT ( #96, #239, ( #56 ) ) ;
#58 = CC_DESIGN_DATE_AND_TIME_ASSIGNMENT ( #87, #259, ( #56 ) ) ;
#59 = APPROVAL ( #362, 'UNSPECIFIED' ) ;
#60 = CC_DESIGN_APPROVAL ( #59, ( #56 ) ) ;
#61 = CC_DESIGN_SECURITY_CLASSIFICATION ( #56, ( #51 ) ) ;
#62 = PRODUCT_RELATED_PRODUCT_CATEGORY ( 'detail', '', ( #1 ) ) ;
#63 = LOCAL_TIME ( 17, 5, 22.00000000000000000, #64 ) ;
#64 = COORDINATED_UNIVERSAL_TIME_OFFSET ( 2, 0, .AHEAD. ) ;
#65 = PERSON_AND_ORGANIZATION ( #207, #197 ) ;
#66 = LOCAL_TIME ( 17, 5, 22.00000000000000000, #67 ) ;
#67 = COORDINATED_UNIVERSAL_TIME_OFFSET ( 2, 0, .AHEAD. ) ;
#68 = APPROVAL_PERSON_ORGANIZATION ( #71, #52, #227 ) ;
#69 = CALENDAR_DATE ( 2016, 4, 5 ) ;
#70 = LOCAL_TIME ( 17, 5, 22.00000000000000000, #133 ) ;
#71 = PERSON_AND_ORGANIZATION ( #207, #197 ) ;
#72 = DATE_AND_TIME ( #73, #63 ) ;
#73 = CALENDAR_DATE ( 2016, 4, 5 ) ;
#74 = CALENDAR_DATE ( 2016, 4, 5 ) ;
#75 = LOCAL_TIME ( 17, 5, 22.00000000000000000, #76 ) ;
#76 = COORDINATED_UNIVERSAL_TIME_OFFSET ( 2, 0, .AHEAD. ) ;
#77 = APPROVAL_DATE_TIME ( #78, #52 ) ;
#78 = DATE_AND_TIME ( #79, #66 ) ;
#79 = CALENDAR_DATE ( 2016, 4, 5 ) ;
#80 = APPROVAL_DATE_TIME ( #81, #59 ) ;
#81 = DATE_AND_TIME ( #74, #75 ) ;
#82 = APPROVAL_DATE_TIME ( #83, #47 ) ;
#83 = DATE_AND_TIME ( #84, #89 ) ;
#84 = CALENDAR_DATE ( 2016, 4, 5 ) ;
#85 = APPROVAL_PERSON_ORGANIZATION ( #86, #59, #361 ) ;
#86 = PERSON_AND_ORGANIZATION ( #207, #197 ) ;
#87 = DATE_AND_TIME ( #69, #70 ) ;
#88 = EDGE_LOOP ( 'NONE', ( #177 ) ) ;
#89 = LOCAL_TIME ( 17, 5, 22.00000000000000000, #90 ) ;
#90 = COORDINATED_UNIVERSAL_TIME_OFFSET ( 2, 0, .AHEAD. ) ;
#91 = EDGE_LOOP ( 'NONE', ( #146 ) ) ;
#92 = EDGE_LOOP ( 'NONE', ( #101 ) ) ;
#93 = EDGE_LOOP ( 'NONE', ( #183 ) ) ;
#94 = ORIENTED_EDGE ( 'NONE', *, *, #27, .F. ) ;
#95 = PERSON_AND_ORGANIZATION ( #207, #197 ) ;
#96 = PERSON_AND_ORGANIZATION ( #207, #197 ) ;
#97 = EDGE_LOOP ( 'NONE', ( #164 ) ) ;
#98 = APPROVAL_PERSON_ORGANIZATION ( #203, #47, #230 ) ;
#99 = EDGE_LOOP ( 'NONE', ( #167 ) ) ;
#100 = EDGE_LOOP ( 'NONE', ( #162 ) ) ;
#101 = ORIENTED_EDGE ( 'NONE', *, *, #21, .T. ) ;
#102 = PERSON_AND_ORGANIZATION ( #207, #197 ) ;
#103 = FACE_BOUND ( 'NONE', #175, .T. ) ;
#104 = FACE_BOUND ( 'NONE', #126, .T. ) ;
#105 = FACE_OUTER_BOUND ( 'NONE', #184, .T. ) ;
#106 = ORIENTED_EDGE ( 'NONE', *, *, #23, .T. ) ;
#107 = FACE_OUTER_BOUND ( 'NONE', #100, .T. ) ;
#108 = TOROIDAL_SURFACE ( 'NONE', #31, 19.75000000000000000, 0.2500000000000000000 ) ;
#109 = FACE_OUTER_BOUND ( 'NONE', #201, .T. ) ;
#110 = ORIENTED_EDGE ( 'NONE', *, *, #25, .T. ) ;
#111 = CYLINDRICAL_SURFACE ( 'NONE', #37, 20.00000000000000000 ) ;
#112 = FACE_OUTER_BOUND ( 'NONE', #172, .T. ) ;
#113 = ORIENTED_EDGE ( 'NONE', *, *, #16, .F. ) ;
#114 = ORIENTED_EDGE ( 'NONE', *, *, #28, .F. ) ;
#115 = FACE_OUTER_BOUND ( 'NONE', #92, .T. ) ;
#116 = FACE_OUTER_BOUND ( 'NONE', #182, .T. ) ;
#117 = CYLINDRICAL_SURFACE ( 'NONE', #36, 19.00000000000000000 ) ;
#118 = CIRCLE ( 'NONE', #8, 20.00000000000000000 ) ;
#119 = FACE_OUTER_BOUND ( 'NONE', #163, .T. ) ;
#120 = CIRCLE ( 'NONE', #2, 20.00000000000000000 ) ;
#121 = CIRCLE ( 'NONE', #3, 19.00000000000000000 ) ;
#122 = ORIENTED_EDGE ( 'NONE', *, *, #18, .F. ) ;
#123 = CIRCLE ( 'NONE', #4, 19.75000000000000400 ) ;
#124 = FACE_BOUND ( 'NONE', #160, .T. ) ;
#125 = FACE_BOUND ( 'NONE', #161, .T. ) ;
#126 = EDGE_LOOP ( 'NONE', ( #166 ) ) ;
#127 = FACE_OUTER_BOUND ( 'NONE', #88, .T. ) ;
#128 = FACE_OUTER_BOUND ( 'NONE', #170, .T. ) ;
#129 = CIRCLE ( 'NONE', #30, 19.00000000000000400 ) ;
#130 = CYLINDRICAL_SURFACE ( 'NONE', #32, 20.00000000000000400 ) ;
#131 = CIRCLE ( 'NONE', #19, 20.00000000000000400 ) ;
#132 = CIRCLE ( 'NONE', #9, 12.50000000000000700 ) ;
#133 = COORDINATED_UNIVERSAL_TIME_OFFSET ( 2, 0, .AHEAD. ) ;
#134 = CIRCLE ( 'NONE', #10, 19.75000000000000000 ) ;
#135 = ORIENTED_EDGE ( 'NONE', *, *, #24, .F. ) ;
#136 = EDGE_LOOP ( 'NONE', ( #154 ) ) ;
#137 = CIRCLE ( 'NONE', #11, 20.00000000000000400 ) ;
#138 = EDGE_LOOP ( 'NONE', ( #159 ) ) ;
#139 = FACE_OUTER_BOUND ( 'NONE', #97, .T. ) ;
#140 = CIRCLE ( 'NONE', #5, 19.00000000000000400 ) ;
#141 = ORIENTED_EDGE ( 'NONE', *, *, #16, .T. ) ;
#142 = CIRCLE ( 'NONE', #6, 20.00000000000000000 ) ;
#143 = FACE_OUTER_BOUND ( 'NONE', #136, .T. ) ;
#144 = ORIENTED_EDGE ( 'NONE', *, *, #23, .F. ) ;
#145 = ORIENTED_EDGE ( 'NONE', *, *, #29, .T. ) ;
#146 = ORIENTED_EDGE ( 'NONE', *, *, #15, .T. ) ;
#147 = ORIENTED_EDGE ( 'NONE', *, *, #21, .F. ) ;
#148 = ORIENTED_EDGE ( 'NONE', *, *, #17, .T. ) ;
#149 = ORIENTED_EDGE ( 'NONE', *, *, #15, .F. ) ;
#150 = EDGE_LOOP ( 'NONE', ( #110 ) ) ;
#151 = ORIENTED_EDGE ( 'NONE', *, *, #27, .T. ) ;
#152 = ORIENTED_EDGE ( 'NONE', *, *, #28, .T. ) ;
#153 = ORIENTED_EDGE ( 'NONE', *, *, #29, .F. ) ;
#154 = ORIENTED_EDGE ( 'NONE', *, *, #24, .T. ) ;
#155 = CIRCLE ( 'NONE', #12, 20.00000000000000400 ) ;
#156 = ORIENTED_EDGE ( 'NONE', *, *, #14, .F. ) ;
#157 = EDGE_LOOP ( 'NONE', ( #122 ) ) ;
#158 = FACE_OUTER_BOUND ( 'NONE', #150, .T. ) ;
#159 = ORIENTED_EDGE ( 'NONE', *, *, #13, .F. ) ;
#160 = EDGE_LOOP ( 'NONE', ( #147 ) ) ;
#161 = EDGE_LOOP ( 'NONE', ( #148 ) ) ;
#162 = ORIENTED_EDGE ( 'NONE', *, *, #22, .F. ) ;
#163 = EDGE_LOOP ( 'NONE', ( #94 ) ) ;
#164 = ORIENTED_EDGE ( 'NONE', *, *, #17, .F. ) ;
#165 = ORIENTED_EDGE ( 'NONE', *, *, #22, .T. ) ;
#166 = ORIENTED_EDGE ( 'NONE', *, *, #25, .F. ) ;
#167 = ORIENTED_EDGE ( 'NONE', *, *, #13, .T. ) ;
#168 = EDGE_LOOP ( 'NONE', ( #152 ) ) ;
#169 = EDGE_LOOP ( 'NONE', ( #153 ) ) ;
#170 = EDGE_LOOP ( 'NONE', ( #141 ) ) ;
#171 = EDGE_LOOP ( 'NONE', ( #165 ) ) ;
#172 = EDGE_LOOP ( 'NONE', ( #135 ) ) ;
#173 = EDGE_LOOP ( 'NONE', ( #156 ) ) ;
#174 = FACE_OUTER_BOUND ( 'NONE', #202, .T. ) ;
#175 = EDGE_LOOP ( 'NONE', ( #145 ) ) ;
#176 = EDGE_LOOP ( 'NONE', ( #144 ) ) ;
#177 = ORIENTED_EDGE ( 'NONE', *, *, #18, .T. ) ;
#178 = CLOSED_SHELL ( 'NONE', ( #215, #216, #212, #220, #217, #218, #219, #221, #208, #210, #211, #209, #214, #213 ) ) ;
#179 = EDGE_LOOP ( 'NONE', ( #149 ) ) ;
#180 = FACE_OUTER_BOUND ( 'NONE', #168, .T. ) ;
#181 = CIRCLE ( 'NONE', #7, 12.50000000000000000 ) ;
#182 = EDGE_LOOP ( 'NONE', ( #151 ) ) ;
#183 = ORIENTED_EDGE ( 'NONE', *, *, #14, .T. ) ;
#184 = EDGE_LOOP ( 'NONE', ( #106 ) ) ;
#185 = FACE_OUTER_BOUND ( 'NONE', #138, .T. ) ;
#186 = CYLINDRICAL_SURFACE ( 'NONE', #35, 12.50000000000000400 ) ;
#187 = FACE_BOUND ( 'NONE', #99, .T. ) ;
#188 = CYLINDRICAL_SURFACE ( 'NONE', #39, 20.00000000000000400 ) ;
#189 = FACE_OUTER_BOUND ( 'NONE', #169, .T. ) ;
#190 = FACE_OUTER_BOUND ( 'NONE', #171, .T. ) ;
#191 = CIRCLE ( 'NONE', #26, 19.00000000000000000 ) ;
#192 = FACE_OUTER_BOUND ( 'NONE', #179, .T. ) ;
#193 = FACE_OUTER_BOUND ( 'NONE', #91, .T. ) ;
#194 = FACE_OUTER_BOUND ( 'NONE', #173, .T. ) ;
#195 =( GEOMETRIC_REPRESENTATION_CONTEXT ( 3 ) GLOBAL_UNCERTAINTY_ASSIGNED_CONTEXT ( ( #369 ) ) GLOBAL_UNIT_ASSIGNED_CONTEXT ( ( #246, #245, #244 ) ) REPRESENTATION_CONTEXT ( 'NONE', 'WORKASPACE' ) );
#196 = SHAPE_DEFINITION_REPRESENTATION ( #223, #368 ) ;
#197 = ORGANIZATION ( 'UNSPECIFIED', 'UNSPECIFIED', '' ) ;
#198 = PERSON_AND_ORGANIZATION ( #207, #197 ) ;
#199 = FACE_OUTER_BOUND ( 'NONE', #157, .T. ) ;
#200 = TOROIDAL_SURFACE ( 'NONE', #20, 19.75000000000000400, 0.2500000000000000000 ) ;
#201 = EDGE_LOOP ( 'NONE', ( #113 ) ) ;
#202 = EDGE_LOOP ( 'NONE', ( #114 ) ) ;
#203 = PERSON_AND_ORGANIZATION ( #207, #197 ) ;
#204 = CYLINDRICAL_SURFACE ( 'NONE', #41, 19.00000000000000400 ) ;
#205 = FACE_BOUND ( 'NONE', #176, .T. ) ;
#206 = FACE_OUTER_BOUND ( 'NONE', #93, .T. ) ;
#207 = PERSON ( 'UNSPECIFIED', 'UNSPECIFIED', 'UNSPECIFIED', ('UNSPECIFIED'), ('UNSPECIFIED'), ('UNSPECIFIED') ) ;
#208 = ADVANCED_FACE ( 'NONE', ( #180, #194 ), #130, .T. ) ;
#209 = ADVANCED_FACE ( 'NONE', ( #128, #124 ), #329, .F. ) ;
#210 = ADVANCED_FACE ( 'NONE', ( #143, #125 ), #332, .F. ) ;
#211 = ADVANCED_FACE ( 'NONE', ( #139, #115 ), #186, .F. ) ;
#212 = ADVANCED_FACE ( 'NONE', ( #185, #158 ), #117, .T. ) ;
#213 = ADVANCED_FACE ( 'NONE', ( #119, #109 ), #108, .T. ) ;
#214 = ADVANCED_FACE ( 'NONE', ( #112, #174 ), #200, .T. ) ;
#215 = ADVANCED_FACE ( 'NONE', ( #116, #190 ), #111, .T. ) ;
#216 = ADVANCED_FACE ( 'NONE', ( #107, #187 ), #300, .F. ) ;
#217 = ADVANCED_FACE ( 'NONE', ( #199, #193 ), #188, .T. ) ;
#218 = ADVANCED_FACE ( 'NONE', ( #192, #103 ), #292, .F. ) ;
#219 = ADVANCED_FACE ( 'NONE', ( #189, #105 ), #204, .T. ) ;
#220 = ADVANCED_FACE ( 'NONE', ( #104, #127 ), #284, .F. ) ;
#221 = ADVANCED_FACE ( 'NONE', ( #205, #206 ), #290, .F. ) ;
#222 = DESIGN_CONTEXT ( 'detailed design', #233, 'design' ) ;
#223 = PRODUCT_DEFINITION_SHAPE ( 'NONE', 'NONE',  #46 ) ;
#224 = SECURITY_CLASSIFICATION_LEVEL ( 'unclassified' ) ;
#225 = PERSON_AND_ORGANIZATION_ROLE ( 'design_supplier' ) ;
#226 = PERSON_AND_ORGANIZATION_ROLE ( 'creator' ) ;
#227 = APPROVAL_ROLE ( '' ) ;
#228 = APPROVAL_STATUS ( 'not_yet_approved' ) ;
#229 = DATE_TIME_ROLE ( 'creation_date' ) ;
#230 = APPROVAL_ROLE ( '' ) ;
#231 = APPROVAL_STATUS ( 'not_yet_approved' ) ;
#232 = APPLICATION_PROTOCOL_DEFINITION ( 'international standard', 'config_control_design', 1994, #233 ) ;
#233 = APPLICATION_CONTEXT ( 'configuration controlled 3d designs of mechanical parts and assemblies' ) ;
#234 = MECHANICAL_CONTEXT ( 'NONE', #236, 'mechanical' ) ;
#235 = APPLICATION_PROTOCOL_DEFINITION ( 'international standard', 'config_control_design', 1994, #236 ) ;
#236 = APPLICATION_CONTEXT ( 'configuration controlled 3d designs of mechanical parts and assemblies' ) ;
#237 = DIRECTION ( 'NONE',  ( -1.000000000000000000, -0.0000000000000000000, -0.0000000000000000000 ) ) ;
#238 = DIRECTION ( 'NONE',  ( 1.000000000000000000, 0.0000000000000000000, 0.0000000000000000000 ) ) ;
#239 = PERSON_AND_ORGANIZATION_ROLE ( 'classification_officer' ) ;
#240 = VERTEX_POINT ( 'NONE', #260 ) ;
#241 = CARTESIAN_POINT ( 'NONE',  ( -18.64999999999999900, 0.0000000000000000000, 0.0000000000000000000 ) ) ;
#242 = CARTESIAN_POINT ( 'NONE',  ( 0.0000000000000000000, 0.0000000000000000000, 0.0000000000000000000 ) ) ;
#243 = PERSON_AND_ORGANIZATION_ROLE ( 'creator' ) ;
#244 =( NAMED_UNIT ( * ) SI_UNIT ( $, .STERADIAN. ) SOLID_ANGLE_UNIT ( ) );
#245 =( NAMED_UNIT ( * ) PLANE_ANGLE_UNIT ( ) SI_UNIT ( $, .RADIAN. ) );
#246 =( LENGTH_UNIT ( ) NAMED_UNIT ( * ) SI_UNIT ( .MILLI., .METRE. ) );
#247 = CARTESIAN_POINT ( 'NONE',  ( 18.64999999999999900, 0.0000000000000000000, 19.00000000000000400 ) ) ;
#248 = VERTEX_POINT ( 'NONE', #247 ) ;
#249 = CARTESIAN_POINT ( 'NONE',  ( 29.25000000000000000, 0.0000000000000000000, 20.00000000000000400 ) ) ;
#250 = VERTEX_POINT ( 'NONE', #249 ) ;
#251 = CARTESIAN_POINT ( 'NONE',  ( -29.25000000000000400, 0.0000000000000000000, -20.00000000000000000 ) ) ;
#252 = VERTEX_POINT ( 'NONE', #251 ) ;
#253 = CARTESIAN_POINT ( 'NONE',  ( -18.64999999999999900, 0.0000000000000000000, 19.00000000000000000 ) ) ;
#254 = VERTEX_POINT ( 'NONE', #253 ) ;
#255 = CARTESIAN_POINT ( 'NONE',  ( 29.50000000000000400, 0.0000000000000000000, 19.75000000000000400 ) ) ;
#256 = VERTEX_POINT ( 'NONE', #255 ) ;
#257 = CARTESIAN_POINT ( 'NONE',  ( 20.49999999999998900, 0.0000000000000000000, 19.00000000000000400 ) ) ;
#258 = VERTEX_POINT ( 'NONE', #257 ) ;
#259 = DATE_TIME_ROLE ( 'classification_date' ) ;
#260 = CARTESIAN_POINT ( 'NONE',  ( -20.50000000000000400, 0.0000000000000000000, 20.00000000000000000 ) ) ;
#261 = CARTESIAN_POINT ( 'NONE',  ( -29.50000000000000700, 0.0000000000000000000, 12.50000000000000000 ) ) ;
#262 = VERTEX_POINT ( 'NONE', #261 ) ;
#263 = CARTESIAN_POINT ( 'NONE',  ( -18.64999999999999900, 0.0000000000000000000, 20.00000000000000000 ) ) ;
#264 = VERTEX_POINT ( 'NONE', #263 ) ;
#265 = CARTESIAN_POINT ( 'NONE',  ( 29.50000000000000000, 0.0000000000000000000, 12.50000000000000700 ) ) ;
#266 = PERSON_AND_ORGANIZATION_ROLE ( 'design_owner' ) ;
#267 = VERTEX_POINT ( 'NONE', #265 ) ;
#268 = CARTESIAN_POINT ( 'NONE',  ( -29.50000000000000700, 0.0000000000000000000, -19.75000000000000000 ) ) ;
#269 = VERTEX_POINT ( 'NONE', #268 ) ;
#270 = CARTESIAN_POINT ( 'NONE',  ( 18.64999999999999900, 0.0000000000000000000, 20.00000000000000400 ) ) ;
#271 = VERTEX_POINT ( 'NONE', #270 ) ;
#272 = CARTESIAN_POINT ( 'NONE',  ( 20.49999999999998900, 0.0000000000000000000, 20.00000000000000400 ) ) ;
#273 = CARTESIAN_POINT ( 'NONE',  ( -20.50000000000000400, 0.0000000000000000000, 19.00000000000000000 ) ) ;
#274 = DIRECTION ( 'NONE',  ( 0.0000000000000000000, 0.0000000000000000000, -1.000000000000000000 ) ) ;
#275 = CARTESIAN_POINT ( 'NONE',  ( 29.50000000000000000, 0.0000000000000000000, 0.0000000000000000000 ) ) ;
#276 = DIRECTION ( 'NONE',  ( 1.000000000000000000, 0.0000000000000000000, 0.0000000000000000000 ) ) ;
#277 = CARTESIAN_POINT ( 'NONE',  ( 18.64999999999999900, 0.0000000000000000000, 0.0000000000000000000 ) ) ;
#278 = VERTEX_POINT ( 'NONE', #272 ) ;
#279 = VERTEX_POINT ( 'NONE', #273 ) ;
#280 = DIRECTION ( 'NONE',  ( 0.0000000000000000000, 0.0000000000000000000, -1.000000000000000000 ) ) ;
#281 = DIRECTION ( 'NONE',  ( 1.000000000000000000, 0.0000000000000000000, 0.0000000000000000000 ) ) ;
#282 = DIRECTION ( 'NONE',  ( 1.000000000000000000, 0.0000000000000000000, 0.0000000000000000000 ) ) ;
#283 = DIRECTION ( 'NONE',  ( 0.0000000000000000000, 0.0000000000000000000, 1.000000000000000000 ) ) ;
#284 = PLANE ( 'NONE',  #42 ) ;
#285 = CARTESIAN_POINT ( 'NONE',  ( -18.65000000000000200, 19.00000000000000000, 0.0000000000000000000 ) ) ;
#286 = CARTESIAN_POINT ( 'NONE',  ( -70.83368873109185400, 0.0000000000000000000, 0.0000000000000000000 ) ) ;
#287 = CARTESIAN_POINT ( 'NONE',  ( 20.49999999999999600, 19.00000000000000400, 0.0000000000000000000 ) ) ;
#288 = DIRECTION ( 'NONE',  ( -0.0000000000000000000, 0.0000000000000000000, 1.000000000000000000 ) ) ;
#289 = DIRECTION ( 'NONE',  ( -1.000000000000000000, 0.0000000000000000000, -0.0000000000000000000 ) ) ;
#290 = PLANE ( 'NONE',  #43 ) ;
#291 = DIRECTION ( 'NONE',  ( -1.000000000000000000, -0.0000000000000000000, -0.0000000000000000000 ) ) ;
#292 = PLANE ( 'NONE',  #40 ) ;
#293 = CARTESIAN_POINT ( 'NONE',  ( 18.64999999999999500, 20.00000000000000400, 0.0000000000000000000 ) ) ;
#294 = CARTESIAN_POINT ( 'NONE',  ( -70.83368873109185400, 0.0000000000000000000, 0.0000000000000000000 ) ) ;
#295 = CARTESIAN_POINT ( 'NONE',  ( 20.49999999999998900, 0.0000000000000000000, 0.0000000000000000000 ) ) ;
#296 = DIRECTION ( 'NONE',  ( 0.0000000000000000000, 0.0000000000000000000, 1.000000000000000000 ) ) ;
#297 = DIRECTION ( 'NONE',  ( -0.0000000000000000000, 0.0000000000000000000, 1.000000000000000000 ) ) ;
#298 = DIRECTION ( 'NONE',  ( -1.000000000000000000, 0.0000000000000000000, -0.0000000000000000000 ) ) ;
#299 = DIRECTION ( 'NONE',  ( -1.000000000000000000, -0.0000000000000000000, -0.0000000000000000000 ) ) ;
#300 = PLANE ( 'NONE',  #38 ) ;
#301 = CARTESIAN_POINT ( 'NONE',  ( -20.50000000000000400, 20.00000000000000000, 0.0000000000000000000 ) ) ;
#302 = CARTESIAN_POINT ( 'NONE',  ( -70.83368873109185400, 0.0000000000000000000, 0.0000000000000000000 ) ) ;
#303 = CARTESIAN_POINT ( 'NONE',  ( -20.50000000000000400, 0.0000000000000000000, 0.0000000000000000000 ) ) ;
#304 = DIRECTION ( 'NONE',  ( -1.000000000000000000, -0.0000000000000000000, -0.0000000000000000000 ) ) ;
#305 = DIRECTION ( 'NONE',  ( -1.000000000000000000, -0.0000000000000000000, -0.0000000000000000000 ) ) ;
#306 = DIRECTION ( 'NONE',  ( 0.0000000000000000000, 0.0000000000000000000, 1.000000000000000000 ) ) ;
#307 = DIRECTION ( 'NONE',  ( 0.0000000000000000000, 0.0000000000000000000, 1.000000000000000000 ) ) ;
#308 = CARTESIAN_POINT ( 'NONE',  ( 29.25000000000000000, 0.0000000000000000000, 0.0000000000000000000 ) ) ;
#309 = DIRECTION ( 'NONE',  ( 0.0000000000000000000, 0.0000000000000000000, -1.000000000000000000 ) ) ;
#310 = DIRECTION ( 'NONE',  ( 0.0000000000000000000, 0.0000000000000000000, 1.000000000000000000 ) ) ;
#311 = DIRECTION ( 'NONE',  ( -1.000000000000000000, -0.0000000000000000000, -0.0000000000000000000 ) ) ;
#312 = CARTESIAN_POINT ( 'NONE',  ( -29.25000000000000400, 0.0000000000000000000, 0.0000000000000000000 ) ) ;
#313 = DIRECTION ( 'NONE',  ( 1.000000000000000000, 0.0000000000000000000, 0.0000000000000000000 ) ) ;
#314 = CARTESIAN_POINT ( 'NONE',  ( -29.50000000000000700, 0.0000000000000000000, 0.0000000000000000000 ) ) ;
#315 = CARTESIAN_POINT ( 'NONE',  ( -70.83368873109185400, 0.0000000000000000000, 0.0000000000000000000 ) ) ;
#316 = DIRECTION ( 'NONE',  ( -1.000000000000000000, -0.0000000000000000000, -0.0000000000000000000 ) ) ;
#317 = DIRECTION ( 'NONE',  ( 0.0000000000000000000, 0.0000000000000000000, 1.000000000000000000 ) ) ;
#318 = CARTESIAN_POINT ( 'NONE',  ( -70.83368873109185400, 0.0000000000000000000, 0.0000000000000000000 ) ) ;
#319 = DIRECTION ( 'NONE',  ( -1.000000000000000000, -0.0000000000000000000, -0.0000000000000000000 ) ) ;
#320 = DIRECTION ( 'NONE',  ( 0.0000000000000000000, 0.0000000000000000000, 1.000000000000000000 ) ) ;
#321 = DIRECTION ( 'NONE',  ( -0.0000000000000000000, 0.0000000000000000000, 1.000000000000000000 ) ) ;
#322 = DIRECTION ( 'NONE',  ( -1.000000000000000000, 0.0000000000000000000, -0.0000000000000000000 ) ) ;
#323 = DIRECTION ( 'NONE',  ( -1.000000000000000000, -0.0000000000000000000, -0.0000000000000000000 ) ) ;
#324 = DIRECTION ( 'NONE',  ( 0.0000000000000000000, 0.0000000000000000000, 1.000000000000000000 ) ) ;
#325 = DIRECTION ( 'NONE',  ( 0.0000000000000000000, 0.0000000000000000000, 1.000000000000000000 ) ) ;
#326 = DIRECTION ( 'NONE',  ( 0.0000000000000000000, 0.0000000000000000000, -1.000000000000000000 ) ) ;
#327 = DIRECTION ( 'NONE',  ( 1.000000000000000000, 0.0000000000000000000, 0.0000000000000000000 ) ) ;
#328 = DIRECTION ( 'NONE',  ( -1.000000000000000000, -0.0000000000000000000, -0.0000000000000000000 ) ) ;
#329 = PLANE ( 'NONE',  #33 ) ;
#330 = CARTESIAN_POINT ( 'NONE',  ( -29.50000000000000700, 12.50000000000000000, 0.0000000000000000000 ) ) ;
#331 = CARTESIAN_POINT ( 'NONE',  ( 29.25000000000000000, 0.0000000000000000000, 0.0000000000000000000 ) ) ;
#332 = PLANE ( 'NONE',  #34 ) ;
#333 = CARTESIAN_POINT ( 'NONE',  ( 29.50000000000000400, 20.00000000000000700, 0.0000000000000000000 ) ) ;
#334 = DIRECTION ( 'NONE',  ( 0.0000000000000000000, 0.0000000000000000000, 1.000000000000000000 ) ) ;
#335 = DIRECTION ( 'NONE',  ( 0.0000000000000000000, 0.0000000000000000000, 1.000000000000000000 ) ) ;
#336 = DIRECTION ( 'NONE',  ( -1.000000000000000000, -0.0000000000000000000, -0.0000000000000000000 ) ) ;
#337 = DIRECTION ( 'NONE',  ( -1.000000000000000000, -0.0000000000000000000, -0.0000000000000000000 ) ) ;
#338 = CARTESIAN_POINT ( 'NONE',  ( -70.83368873109185400, 0.0000000000000000000, 0.0000000000000000000 ) ) ;
#339 = DIRECTION ( 'NONE',  ( -1.000000000000000000, -0.0000000000000000000, -0.0000000000000000000 ) ) ;
#340 = DIRECTION ( 'NONE',  ( 0.0000000000000000000, 0.0000000000000000000, 1.000000000000000000 ) ) ;
#341 = DIRECTION ( 'NONE',  ( 0.0000000000000000000, 0.0000000000000000000, 1.000000000000000000 ) ) ;
#342 = DIRECTION ( 'NONE',  ( 1.000000000000000000, 0.0000000000000000000, 0.0000000000000000000 ) ) ;
#343 = DIRECTION ( 'NONE',  ( 0.0000000000000000000, 0.0000000000000000000, 1.000000000000000000 ) ) ;
#344 = DIRECTION ( 'NONE',  ( 0.0000000000000000000, 0.0000000000000000000, -1.000000000000000000 ) ) ;
#345 = DIRECTION ( 'NONE',  ( 0.0000000000000000000, 0.0000000000000000000, 1.000000000000000000 ) ) ;
#346 = DIRECTION ( 'NONE',  ( 0.0000000000000000000, 0.0000000000000000000, 1.000000000000000000 ) ) ;
#347 = DIRECTION ( 'NONE',  ( -1.000000000000000000, -0.0000000000000000000, -0.0000000000000000000 ) ) ;
#348 = CARTESIAN_POINT ( 'NONE',  ( -29.25000000000000400, 0.0000000000000000000, 0.0000000000000000000 ) ) ;
#349 = DIRECTION ( 'NONE',  ( -1.000000000000000000, -0.0000000000000000000, -0.0000000000000000000 ) ) ;
#350 = DIRECTION ( 'NONE',  ( 0.0000000000000000000, 0.0000000000000000000, 1.000000000000000000 ) ) ;
#351 = DIRECTION ( 'NONE',  ( -1.000000000000000000, -0.0000000000000000000, -0.0000000000000000000 ) ) ;
#352 = CARTESIAN_POINT ( 'NONE',  ( -18.64999999999999900, 0.0000000000000000000, 0.0000000000000000000 ) ) ;
#353 = DIRECTION ( 'NONE',  ( 0.0000000000000000000, 0.0000000000000000000, -1.000000000000000000 ) ) ;
#354 = DIRECTION ( 'NONE',  ( 0.0000000000000000000, 0.0000000000000000000, 1.000000000000000000 ) ) ;
#355 = CARTESIAN_POINT ( 'NONE',  ( 18.64999999999999900, 0.0000000000000000000, 0.0000000000000000000 ) ) ;
#356 = DIRECTION ( 'NONE',  ( 0.0000000000000000000, 0.0000000000000000000, 1.000000000000000000 ) ) ;
#357 = DIRECTION ( 'NONE',  ( 0.0000000000000000000, 0.0000000000000000000, 1.000000000000000000 ) ) ;
#358 = DIRECTION ( 'NONE',  ( -1.000000000000000000, -0.0000000000000000000, -0.0000000000000000000 ) ) ;
#359 = CARTESIAN_POINT ( 'NONE',  ( 29.50000000000000400, 0.0000000000000000000, 0.0000000000000000000 ) ) ;
#360 = DIRECTION ( 'NONE',  ( -1.000000000000000000, -0.0000000000000000000, -0.0000000000000000000 ) ) ;
#361 = APPROVAL_ROLE ( '' ) ;
#362 = APPROVAL_STATUS ( 'not_yet_approved' ) ;
#363 = CARTESIAN_POINT ( 'NONE',  ( -20.50000000000000400, 0.0000000000000000000, 0.0000000000000000000 ) ) ;
#364 = CARTESIAN_POINT ( 'NONE',  ( 20.49999999999998900, 0.0000000000000000000, 0.0000000000000000000 ) ) ;
#365 = DIRECTION ( 'NONE',  ( -1.000000000000000000, -0.0000000000000000000, -0.0000000000000000000 ) ) ;
#366 = CARTESIAN_POINT ( 'NONE',  ( -29.50000000000000700, 0.0000000000000000000, 0.0000000000000000000 ) ) ;
#367 = MANIFOLD_SOLID_BREP ( 'Fillet1', #178 ) ;
#368 = ADVANCED_BREP_SHAPE_REPRESENTATION ( 'LM25UU', ( #367, #44 ), #195 ) ;
#369 = UNCERTAINTY_MEASURE_WITH_UNIT (LENGTH_MEASURE( 1.000000000000000100E-005 ), #246, 'distance_accuracy_value', 'NONE');
ENDSEC;
END-ISO-10303-21;
