ISO-10303-21;
HEADER;
FILE_DESCRIPTION (( 'STEP AP203' ),
    '1' );
FILE_NAME ('LM12UU.STEP',
    '2016-05-04T14:00:53',
    ( '' ),
    ( '' ),
    'SwSTEP 2.0',
    'SolidWorks 2010',
    '' );
FILE_SCHEMA (( 'CONFIG_CONTROL_DESIGN' ));
ENDSEC;

DATA;
#1 = AXIS2_PLACEMENT_3D ( 'NONE', #253, #238, #236 ) ;
#2 = AXIS2_PLACEMENT_3D ( 'NONE', #192, #231, #191 ) ;
#3 = CC_DESIGN_PERSON_AND_ORGANIZATION_ASSIGNMENT ( #164, #188, ( #174 ) ) ;
#4 = PRODUCT_DEFINITION ( 'UNKNOWN', '', #9, #333 ) ;
#5 = APPROVAL ( #186, 'UNSPECIFIED' ) ;
#6 = CC_DESIGN_APPROVAL ( #5, ( #4 ) ) ;
#7 = CC_DESIGN_PERSON_AND_ORGANIZATION_ASSIGNMENT ( #23, #180, ( #4 ) ) ;
#8 = CC_DESIGN_DATE_AND_TIME_ASSIGNMENT ( #29, #179, ( #4 ) ) ;
#9 = PRODUCT_DEFINITION_FORMATION_WITH_SPECIFIED_SOURCE ( 'ANY', '', #174, .NOT_KNOWN. ) ;
#10 = APPROVAL ( #177, 'UNSPECIFIED' ) ;
#11 = CC_DESIGN_APPROVAL ( #10, ( #9 ) ) ;
#12 = CC_DESIGN_PERSON_AND_ORGANIZATION_ASSIGNMENT ( #78, #176, ( #9 ) ) ;
#13 = CC_DESIGN_PERSON_AND_ORGANIZATION_ASSIGNMENT ( #60, #193, ( #9 ) ) ;
#14 = SECURITY_CLASSIFICATION ( '', '', #198 ) ;
#15 = CC_DESIGN_PERSON_AND_ORGANIZATION_ASSIGNMENT ( #39, #185, ( #14 ) ) ;
#16 = CC_DESIGN_DATE_AND_TIME_ASSIGNMENT ( #49, #182, ( #14 ) ) ;
#17 = APPROVAL ( #181, 'UNSPECIFIED' ) ;
#18 = CC_DESIGN_APPROVAL ( #17, ( #14 ) ) ;
#19 = CC_DESIGN_SECURITY_CLASSIFICATION ( #14, ( #9 ) ) ;
#20 = PRODUCT_RELATED_PRODUCT_CATEGORY ( 'detail', '', ( #174 ) ) ;
#21 = COORDINATED_UNIVERSAL_TIME_OFFSET ( 2, 0, .AHEAD. ) ;
#22 = FACE_OUTER_BOUND ( 'NONE', #126, .T. ) ;
#23 = PERSON_AND_ORGANIZATION ( #175, #163 ) ;
#24 = COORDINATED_UNIVERSAL_TIME_OFFSET ( 2, 0, .AHEAD. ) ;
#25 = APPROVAL_DATE_TIME ( #45, #5 ) ;
#26 = APPROVAL_PERSON_ORGANIZATION ( #27, #10, #212 ) ;
#27 = PERSON_AND_ORGANIZATION ( #175, #163 ) ;
#28 = CIRCLE ( 'NONE', #335, 10.50000000000000000 ) ;
#29 = DATE_AND_TIME ( #30, #32 ) ;
#30 = CALENDAR_DATE ( 2016, 4, 5 ) ;
#31 = EDGE_LOOP ( 'NONE', ( #100 ) ) ;
#32 = LOCAL_TIME ( 17, 0, 53.00000000000000000, #21 ) ;
#33 = LOCAL_TIME ( 17, 0, 53.00000000000000000, #35 ) ;
#34 = LOCAL_TIME ( 17, 0, 53.00000000000000000, #38 ) ;
#35 = COORDINATED_UNIVERSAL_TIME_OFFSET ( 2, 0, .AHEAD. ) ;
#36 = APPROVAL_PERSON_ORGANIZATION ( #48, #17, #178 ) ;
#37 = DATE_AND_TIME ( #40, #41 ) ;
#38 = COORDINATED_UNIVERSAL_TIME_OFFSET ( 2, 0, .AHEAD. ) ;
#39 = PERSON_AND_ORGANIZATION ( #175, #163 ) ;
#40 = CALENDAR_DATE ( 2016, 4, 5 ) ;
#41 = LOCAL_TIME ( 17, 0, 53.00000000000000000, #24 ) ;
#42 = APPROVAL_DATE_TIME ( #43, #17 ) ;
#43 = DATE_AND_TIME ( #44, #33 ) ;
#44 = CALENDAR_DATE ( 2016, 4, 5 ) ;
#45 = DATE_AND_TIME ( #46, #47 ) ;
#46 = CALENDAR_DATE ( 2016, 4, 5 ) ;
#47 = LOCAL_TIME ( 17, 0, 53.00000000000000000, #55 ) ;
#48 = PERSON_AND_ORGANIZATION ( #175, #163 ) ;
#49 = DATE_AND_TIME ( #50, #34 ) ;
#50 = CALENDAR_DATE ( 2016, 4, 5 ) ;
#51 = CIRCLE ( 'NONE', #338, 10.50000000000000400 ) ;
#52 = FACE_OUTER_BOUND ( 'NONE', #161, .T. ) ;
#53 = ORIENTED_EDGE ( 'NONE', *, *, #350, .T. ) ;
#54 = EDGE_LOOP ( 'NONE', ( #109 ) ) ;
#55 = COORDINATED_UNIVERSAL_TIME_OFFSET ( 2, 0, .AHEAD. ) ;
#56 = APPROVAL_PERSON_ORGANIZATION ( #62, #5, #183 ) ;
#57 = EDGE_LOOP ( 'NONE', ( #125 ) ) ;
#58 = EDGE_LOOP ( 'NONE', ( #61 ) ) ;
#59 = EDGE_LOOP ( 'NONE', ( #91 ) ) ;
#60 = PERSON_AND_ORGANIZATION ( #175, #163 ) ;
#61 = ORIENTED_EDGE ( 'NONE', *, *, #348, .F. ) ;
#62 = PERSON_AND_ORGANIZATION ( #175, #163 ) ;
#63 = EDGE_LOOP ( 'NONE', ( #147 ) ) ;
#64 = ORIENTED_EDGE ( 'NONE', *, *, #349, .T. ) ;
#65 = CIRCLE ( 'NONE', #346, 10.50000000000000000 ) ;
#66 = CIRCLE ( 'NONE', #361, 6.000000000000003600 ) ;
#67 = CIRCLE ( 'NONE', #365, 10.00000000000000400 ) ;
#68 = CIRCLE ( 'NONE', #168, 10.00000000000000000 ) ;
#69 = CIRCLE ( 'NONE', #336, 10.00000000000000000 ) ;
#70 = CYLINDRICAL_SURFACE ( 'NONE', #359, 10.00000000000000200 ) ;
#71 = EDGE_LOOP ( 'NONE', ( #136 ) ) ;
#72 = FACE_OUTER_BOUND ( 'NONE', #128, .T. ) ;
#73 = FACE_BOUND ( 'NONE', #58, .T. ) ;
#74 = FACE_BOUND ( 'NONE', #131, .T. ) ;
#75 = FACE_OUTER_BOUND ( 'NONE', #127, .T. ) ;
#76 = FACE_OUTER_BOUND ( 'NONE', #146, .T. ) ;
#77 = FACE_OUTER_BOUND ( 'NONE', #79, .T. ) ;
#78 = PERSON_AND_ORGANIZATION ( #175, #163 ) ;
#79 = EDGE_LOOP ( 'NONE', ( #138 ) ) ;
#80 = APPROVAL_DATE_TIME ( #37, #10 ) ;
#81 = EDGE_LOOP ( 'NONE', ( #116 ) ) ;
#82 = FACE_BOUND ( 'NONE', #57, .T. ) ;
#83 = FACE_OUTER_BOUND ( 'NONE', #105, .T. ) ;
#84 = FACE_BOUND ( 'NONE', #122, .T. ) ;
#85 = FACE_BOUND ( 'NONE', #130, .T. ) ;
#86 = TOROIDAL_SURFACE ( 'NONE', #172, 10.25000000000000400, 0.2500000000000000000 ) ;
#87 = FACE_OUTER_BOUND ( 'NONE', #59, .T. ) ;
#88 = CYLINDRICAL_SURFACE ( 'NONE', #173, 6.000000000000001800 ) ;
#89 = FACE_OUTER_BOUND ( 'NONE', #81, .T. ) ;
#90 = FACE_OUTER_BOUND ( 'NONE', #63, .T. ) ;
#91 = ORIENTED_EDGE ( 'NONE', *, *, #357, .F. ) ;
#92 = TOROIDAL_SURFACE ( 'NONE', #340, 10.25000000000000000, 0.2500000000000000000 ) ;
#93 = FACE_OUTER_BOUND ( 'NONE', #119, .T. ) ;
#94 = FACE_OUTER_BOUND ( 'NONE', #113, .T. ) ;
#95 = CIRCLE ( 'NONE', #364, 10.50000000000000400 ) ;
#96 = CIRCLE ( 'NONE', #337, 10.50000000000000000 ) ;
#97 = CYLINDRICAL_SURFACE ( 'NONE', #165, 10.50000000000000400 ) ;
#98 = FACE_OUTER_BOUND ( 'NONE', #54, .T. ) ;
#99 = FACE_OUTER_BOUND ( 'NONE', #148, .T. ) ;
#100 = ORIENTED_EDGE ( 'NONE', *, *, #358, .T. ) ;
#101 = CYLINDRICAL_SURFACE ( 'NONE', #171, 10.50000000000000200 ) ;
#102 = FACE_OUTER_BOUND ( 'NONE', #153, .T. ) ;
#103 = CIRCLE ( 'NONE', #1, 10.50000000000000200 ) ;
#104 = FACE_OUTER_BOUND ( 'NONE', #160, .T. ) ;
#105 = EDGE_LOOP ( 'NONE', ( #132 ) ) ;
#106 = CIRCLE ( 'NONE', #344, 10.25000000000000400 ) ;
#107 = CYLINDRICAL_SURFACE ( 'NONE', #353, 10.50000000000000000 ) ;
#108 = FACE_OUTER_BOUND ( 'NONE', #117, .T. ) ;
#109 = ORIENTED_EDGE ( 'NONE', *, *, #357, .T. ) ;
#110 = ORIENTED_EDGE ( 'NONE', *, *, #352, .T. ) ;
#111 = ORIENTED_EDGE ( 'NONE', *, *, #356, .F. ) ;
#112 = EDGE_LOOP ( 'NONE', ( #151 ) ) ;
#113 = EDGE_LOOP ( 'NONE', ( #123 ) ) ;
#114 = EDGE_LOOP ( 'NONE', ( #135 ) ) ;
#115 = EDGE_LOOP ( 'NONE', ( #121 ) ) ;
#116 = ORIENTED_EDGE ( 'NONE', *, *, #342, .T. ) ;
#117 = EDGE_LOOP ( 'NONE', ( #110 ) ) ;
#118 = ORIENTED_EDGE ( 'NONE', *, *, #351, .T. ) ;
#119 = EDGE_LOOP ( 'NONE', ( #140 ) ) ;
#120 = ORIENTED_EDGE ( 'NONE', *, *, #351, .F. ) ;
#121 = ORIENTED_EDGE ( 'NONE', *, *, #339, .T. ) ;
#122 = EDGE_LOOP ( 'NONE', ( #141 ) ) ;
#123 = ORIENTED_EDGE ( 'NONE', *, *, #350, .F. ) ;
#124 = EDGE_LOOP ( 'NONE', ( #134 ) ) ;
#125 = ORIENTED_EDGE ( 'NONE', *, *, #342, .F. ) ;
#126 = EDGE_LOOP ( 'NONE', ( #139 ) ) ;
#127 = EDGE_LOOP ( 'NONE', ( #137 ) ) ;
#128 = EDGE_LOOP ( 'NONE', ( #142 ) ) ;
#129 = CYLINDRICAL_SURFACE ( 'NONE', #169, 10.00000000000000000 ) ;
#130 = EDGE_LOOP ( 'NONE', ( #120 ) ) ;
#131 = EDGE_LOOP ( 'NONE', ( #53 ) ) ;
#132 = ORIENTED_EDGE ( 'NONE', *, *, #356, .T. ) ;
#133 = ORIENTED_EDGE ( 'NONE', *, *, #360, .T. ) ;
#134 = ORIENTED_EDGE ( 'NONE', *, *, #347, .T. ) ;
#135 = ORIENTED_EDGE ( 'NONE', *, *, #349, .F. ) ;
#136 = ORIENTED_EDGE ( 'NONE', *, *, #352, .F. ) ;
#137 = ORIENTED_EDGE ( 'NONE', *, *, #347, .F. ) ;
#138 = ORIENTED_EDGE ( 'NONE', *, *, #355, .F. ) ;
#139 = ORIENTED_EDGE ( 'NONE', *, *, #348, .T. ) ;
#140 = ORIENTED_EDGE ( 'NONE', *, *, #343, .F. ) ;
#141 = ORIENTED_EDGE ( 'NONE', *, *, #343, .T. ) ;
#142 = ORIENTED_EDGE ( 'NONE', *, *, #355, .T. ) ;
#143 = ORIENTED_EDGE ( 'NONE', *, *, #358, .F. ) ;
#144 = FACE_OUTER_BOUND ( 'NONE', #124, .T. ) ;
#145 = FACE_OUTER_BOUND ( 'NONE', #112, .T. ) ;
#146 = EDGE_LOOP ( 'NONE', ( #143 ) ) ;
#147 = ORIENTED_EDGE ( 'NONE', *, *, #339, .F. ) ;
#148 = EDGE_LOOP ( 'NONE', ( #64 ) ) ;
#149 = CLOSED_SHELL ( 'NONE', ( #319, #320, #324, #331, #325, #330, #322, #332, #326, #329, #323, #327, #328, #321 ) ) ;
#150 = FACE_OUTER_BOUND ( 'NONE', #31, .T. ) ;
#151 = ORIENTED_EDGE ( 'NONE', *, *, #360, .F. ) ;
#152 = CIRCLE ( 'NONE', #341, 10.00000000000000200 ) ;
#153 = EDGE_LOOP ( 'NONE', ( #118 ) ) ;
#154 = FACE_OUTER_BOUND ( 'NONE', #71, .T. ) ;
#155 = CIRCLE ( 'NONE', #167, 6.000000000000000000 ) ;
#156 = CIRCLE ( 'NONE', #170, 10.25000000000000000 ) ;
#157 =( GEOMETRIC_REPRESENTATION_CONTEXT ( 3 ) GLOBAL_UNCERTAINTY_ASSIGNED_CONTEXT ( ( #369 ) ) GLOBAL_UNIT_ASSIGNED_CONTEXT ( ( #202, #200, #199 ) ) REPRESENTATION_CONTEXT ( 'NONE', 'WORKASPACE' ) );
#158 = FACE_BOUND ( 'NONE', #115, .T. ) ;
#159 = FACE_OUTER_BOUND ( 'NONE', #114, .T. ) ;
#160 = EDGE_LOOP ( 'NONE', ( #133 ) ) ;
#161 = EDGE_LOOP ( 'NONE', ( #111 ) ) ;
#162 = SHAPE_DEFINITION_REPRESENTATION ( #334, #368 ) ;
#163 = ORGANIZATION ( 'UNSPECIFIED', 'UNSPECIFIED', '' ) ;
#164 = PERSON_AND_ORGANIZATION ( #175, #163 ) ;
#165 = AXIS2_PLACEMENT_3D ( 'NONE', #296, #297, #298 ) ;
#166 = AXIS2_PLACEMENT_3D ( 'NONE', #293, #256, #270 ) ;
#167 = AXIS2_PLACEMENT_3D ( 'NONE', #278, #281, #274 ) ;
#168 = AXIS2_PLACEMENT_3D ( 'NONE', #295, #255, #263 ) ;
#169 = AXIS2_PLACEMENT_3D ( 'NONE', #302, #304, #241 ) ;
#170 = AXIS2_PLACEMENT_3D ( 'NONE', #275, #262, #258 ) ;
#171 = AXIS2_PLACEMENT_3D ( 'NONE', #299, #300, #301 ) ;
#172 = AXIS2_PLACEMENT_3D ( 'NONE', #309, #308, #201 ) ;
#173 = AXIS2_PLACEMENT_3D ( 'NONE', #250, #246, #245 ) ;
#174 = PRODUCT ( 'LM12UU', 'LM12UU', '', ( #189 ) ) ;
#175 = PERSON ( 'UNSPECIFIED', 'UNSPECIFIED', 'UNSPECIFIED', ('UNSPECIFIED'), ('UNSPECIFIED'), ('UNSPECIFIED') ) ;
#176 = PERSON_AND_ORGANIZATION_ROLE ( 'creator' ) ;
#177 = APPROVAL_STATUS ( 'not_yet_approved' ) ;
#178 = APPROVAL_ROLE ( '' ) ;
#179 = DATE_TIME_ROLE ( 'creation_date' ) ;
#180 = PERSON_AND_ORGANIZATION_ROLE ( 'creator' ) ;
#181 = APPROVAL_STATUS ( 'not_yet_approved' ) ;
#182 = DATE_TIME_ROLE ( 'classification_date' ) ;
#183 = APPROVAL_ROLE ( '' ) ;
#184 = CARTESIAN_POINT ( 'NONE',  ( -11.50000000000000200, 10.50000000000000000, 0.0000000000000000000 ) ) ;
#185 = PERSON_AND_ORGANIZATION_ROLE ( 'classification_officer' ) ;
#186 = APPROVAL_STATUS ( 'not_yet_approved' ) ;
#187 = APPLICATION_PROTOCOL_DEFINITION ( 'international standard', 'config_control_design', 1994, #195 ) ;
#188 = PERSON_AND_ORGANIZATION_ROLE ( 'design_owner' ) ;
#189 = MECHANICAL_CONTEXT ( 'NONE', #190, 'mechanical' ) ;
#190 = APPLICATION_CONTEXT ( 'configuration controlled 3d designs of mechanical parts and assemblies' ) ;
#191 = DIRECTION ( 'NONE',  ( 1.000000000000000000, 0.0000000000000000000, 0.0000000000000000000 ) ) ;
#192 = CARTESIAN_POINT ( 'NONE',  ( 0.0000000000000000000, 0.0000000000000000000, 0.0000000000000000000 ) ) ;
#193 = PERSON_AND_ORGANIZATION_ROLE ( 'design_supplier' ) ;
#194 = CARTESIAN_POINT ( 'NONE',  ( -10.20000000000000100, 10.00000000000000000, 0.0000000000000000000 ) ) ;
#195 = APPLICATION_CONTEXT ( 'configuration controlled 3d designs of mechanical parts and assemblies' ) ;
#196 = APPLICATION_PROTOCOL_DEFINITION ( 'international standard', 'config_control_design', 1994, #190 ) ;
#197 = VERTEX_POINT ( 'NONE', #214 ) ;
#198 = SECURITY_CLASSIFICATION_LEVEL ( 'unclassified' ) ;
#199 =( NAMED_UNIT ( * ) SI_UNIT ( $, .STERADIAN. ) SOLID_ANGLE_UNIT ( ) );
#200 =( NAMED_UNIT ( * ) PLANE_ANGLE_UNIT ( ) SI_UNIT ( $, .RADIAN. ) );
#201 = DIRECTION ( 'NONE',  ( 0.0000000000000000000, 0.0000000000000000000, 1.000000000000000000 ) ) ;
#202 =( LENGTH_UNIT ( ) NAMED_UNIT ( * ) SI_UNIT ( .MILLI., .METRE. ) );
#203 = CARTESIAN_POINT ( 'NONE',  ( -11.50000000000000400, 0.0000000000000000000, 10.50000000000000000 ) ) ;
#204 = VERTEX_POINT ( 'NONE', #203 ) ;
#205 = CARTESIAN_POINT ( 'NONE',  ( 11.49999999999999600, 0.0000000000000000000, 10.50000000000000400 ) ) ;
#206 = VERTEX_POINT ( 'NONE', #205 ) ;
#207 = CARTESIAN_POINT ( 'NONE',  ( 10.20000000000000100, 0.0000000000000000000, 10.50000000000000200 ) ) ;
#208 = VERTEX_POINT ( 'NONE', #207 ) ;
#209 = CARTESIAN_POINT ( 'NONE',  ( -10.20000000000000100, 0.0000000000000000000, 10.50000000000000000 ) ) ;
#210 = VERTEX_POINT ( 'NONE', #209 ) ;
#211 = CARTESIAN_POINT ( 'NONE',  ( 15.00000000000000000, 0.0000000000000000000, 10.25000000000000400 ) ) ;
#212 = APPROVAL_ROLE ( '' ) ;
#213 = VERTEX_POINT ( 'NONE', #211 ) ;
#214 = CARTESIAN_POINT ( 'NONE',  ( -14.75000000000000000, 0.0000000000000000000, -10.50000000000000000 ) ) ;
#215 = CARTESIAN_POINT ( 'NONE',  ( -10.20000000000000100, 0.0000000000000000000, 10.00000000000000000 ) ) ;
#216 = VERTEX_POINT ( 'NONE', #215 ) ;
#217 = CARTESIAN_POINT ( 'NONE',  ( 10.20000000000000100, 0.0000000000000000000, 10.00000000000000200 ) ) ;
#218 = VERTEX_POINT ( 'NONE', #217 ) ;
#219 = CARTESIAN_POINT ( 'NONE',  ( -15.00000000000000200, 0.0000000000000000000, -10.25000000000000000 ) ) ;
#220 = VERTEX_POINT ( 'NONE', #219 ) ;
#221 = CARTESIAN_POINT ( 'NONE',  ( -15.00000000000000000, 0.0000000000000000000, 6.000000000000000000 ) ) ;
#222 = VERTEX_POINT ( 'NONE', #221 ) ;
#223 = CARTESIAN_POINT ( 'NONE',  ( 14.75000000000000000, 0.0000000000000000000, 10.50000000000000400 ) ) ;
#224 = VERTEX_POINT ( 'NONE', #223 ) ;
#225 = CARTESIAN_POINT ( 'NONE',  ( 15.00000000000000000, 0.0000000000000000000, 6.000000000000003600 ) ) ;
#226 = VERTEX_POINT ( 'NONE', #225 ) ;
#227 = CARTESIAN_POINT ( 'NONE',  ( 11.49999999999999600, 0.0000000000000000000, 10.00000000000000400 ) ) ;
#228 = CARTESIAN_POINT ( 'NONE',  ( -11.50000000000000400, 0.0000000000000000000, 10.00000000000000000 ) ) ;
#229 = DIRECTION ( 'NONE',  ( 0.0000000000000000000, 0.0000000000000000000, 1.000000000000000000 ) ) ;
#230 = DIRECTION ( 'NONE',  ( -1.000000000000000000, -0.0000000000000000000, -0.0000000000000000000 ) ) ;
#231 = DIRECTION ( 'NONE',  ( 0.0000000000000000000, 0.0000000000000000000, 1.000000000000000000 ) ) ;
#232 = VERTEX_POINT ( 'NONE', #228 ) ;
#233 = DIRECTION ( 'NONE',  ( 0.0000000000000000000, 0.0000000000000000000, 1.000000000000000000 ) ) ;
#234 = DIRECTION ( 'NONE',  ( -1.000000000000000000, -0.0000000000000000000, -0.0000000000000000000 ) ) ;
#235 = VERTEX_POINT ( 'NONE', #227 ) ;
#236 = DIRECTION ( 'NONE',  ( 0.0000000000000000000, 0.0000000000000000000, 1.000000000000000000 ) ) ;
#237 = CARTESIAN_POINT ( 'NONE',  ( 14.75000000000000000, 0.0000000000000000000, 0.0000000000000000000 ) ) ;
#238 = DIRECTION ( 'NONE',  ( -1.000000000000000000, -0.0000000000000000000, -0.0000000000000000000 ) ) ;
#239 = CARTESIAN_POINT ( 'NONE',  ( -14.75000000000000000, 0.0000000000000000000, 0.0000000000000000000 ) ) ;
#240 = DIRECTION ( 'NONE',  ( 0.0000000000000000000, 0.0000000000000000000, 1.000000000000000000 ) ) ;
#241 = DIRECTION ( 'NONE',  ( 0.0000000000000000000, 0.0000000000000000000, 1.000000000000000000 ) ) ;
#242 = DIRECTION ( 'NONE',  ( -1.000000000000000000, -0.0000000000000000000, -0.0000000000000000000 ) ) ;
#243 = DIRECTION ( 'NONE',  ( 1.000000000000000000, 0.0000000000000000000, 0.0000000000000000000 ) ) ;
#244 = CARTESIAN_POINT ( 'NONE',  ( -70.83368873109185400, 0.0000000000000000000, 0.0000000000000000000 ) ) ;
#245 = DIRECTION ( 'NONE',  ( 0.0000000000000000000, 0.0000000000000000000, 1.000000000000000000 ) ) ;
#246 = DIRECTION ( 'NONE',  ( -1.000000000000000000, -0.0000000000000000000, -0.0000000000000000000 ) ) ;
#247 = CARTESIAN_POINT ( 'NONE',  ( 11.49999999999999600, 0.0000000000000000000, 0.0000000000000000000 ) ) ;
#248 = DIRECTION ( 'NONE',  ( -1.000000000000000000, -0.0000000000000000000, -0.0000000000000000000 ) ) ;
#249 = DIRECTION ( 'NONE',  ( 0.0000000000000000000, 0.0000000000000000000, 1.000000000000000000 ) ) ;
#250 = CARTESIAN_POINT ( 'NONE',  ( -70.83368873109185400, 0.0000000000000000000, 0.0000000000000000000 ) ) ;
#251 = DIRECTION ( 'NONE',  ( 1.000000000000000000, 0.0000000000000000000, 0.0000000000000000000 ) ) ;
#252 = CARTESIAN_POINT ( 'NONE',  ( 15.00000000000000000, 10.50000000000000400, 0.0000000000000000000 ) ) ;
#253 = CARTESIAN_POINT ( 'NONE',  ( 10.20000000000000100, 0.0000000000000000000, 0.0000000000000000000 ) ) ;
#254 = DIRECTION ( 'NONE',  ( 0.0000000000000000000, 0.0000000000000000000, 1.000000000000000000 ) ) ;
#255 = DIRECTION ( 'NONE',  ( -1.000000000000000000, -0.0000000000000000000, -0.0000000000000000000 ) ) ;
#256 = DIRECTION ( 'NONE',  ( 1.000000000000000000, 0.0000000000000000000, 0.0000000000000000000 ) ) ;
#257 = CARTESIAN_POINT ( 'NONE',  ( 11.49999999999999800, 10.00000000000000400, 0.0000000000000000000 ) ) ;
#258 = DIRECTION ( 'NONE',  ( 0.0000000000000000000, 0.0000000000000000000, -1.000000000000000000 ) ) ;
#259 = CARTESIAN_POINT ( 'NONE',  ( 15.00000000000000000, 0.0000000000000000000, 0.0000000000000000000 ) ) ;
#260 = CARTESIAN_POINT ( 'NONE',  ( 15.00000000000000000, 0.0000000000000000000, 0.0000000000000000000 ) ) ;
#261 = CARTESIAN_POINT ( 'NONE',  ( -14.75000000000000000, 0.0000000000000000000, 0.0000000000000000000 ) ) ;
#262 = DIRECTION ( 'NONE',  ( -1.000000000000000000, -0.0000000000000000000, -0.0000000000000000000 ) ) ;
#263 = DIRECTION ( 'NONE',  ( 0.0000000000000000000, 0.0000000000000000000, 1.000000000000000000 ) ) ;
#264 = DIRECTION ( 'NONE',  ( 1.000000000000000000, 0.0000000000000000000, 0.0000000000000000000 ) ) ;
#265 = DIRECTION ( 'NONE',  ( 0.0000000000000000000, 0.0000000000000000000, -1.000000000000000000 ) ) ;
#266 = CARTESIAN_POINT ( 'NONE',  ( 11.49999999999999600, 0.0000000000000000000, 0.0000000000000000000 ) ) ;
#267 = DIRECTION ( 'NONE',  ( 1.000000000000000000, 0.0000000000000000000, 0.0000000000000000000 ) ) ;
#268 = DIRECTION ( 'NONE',  ( -1.000000000000000000, -0.0000000000000000000, -0.0000000000000000000 ) ) ;
#269 = DIRECTION ( 'NONE',  ( 0.0000000000000000000, 0.0000000000000000000, -1.000000000000000000 ) ) ;
#270 = DIRECTION ( 'NONE',  ( 0.0000000000000000000, 0.0000000000000000000, -1.000000000000000000 ) ) ;
#271 = CARTESIAN_POINT ( 'NONE',  ( -11.50000000000000400, 0.0000000000000000000, 0.0000000000000000000 ) ) ;
#272 = DIRECTION ( 'NONE',  ( -1.000000000000000000, -0.0000000000000000000, -0.0000000000000000000 ) ) ;
#273 = DIRECTION ( 'NONE',  ( 0.0000000000000000000, 0.0000000000000000000, 1.000000000000000000 ) ) ;
#274 = DIRECTION ( 'NONE',  ( 0.0000000000000000000, 0.0000000000000000000, 1.000000000000000000 ) ) ;
#275 = CARTESIAN_POINT ( 'NONE',  ( -15.00000000000000200, 0.0000000000000000000, 0.0000000000000000000 ) ) ;
#276 = CARTESIAN_POINT ( 'NONE',  ( -10.20000000000000100, 0.0000000000000000000, 0.0000000000000000000 ) ) ;
#277 = DIRECTION ( 'NONE',  ( 0.0000000000000000000, 0.0000000000000000000, 1.000000000000000000 ) ) ;
#278 = CARTESIAN_POINT ( 'NONE',  ( -15.00000000000000000, 0.0000000000000000000, 0.0000000000000000000 ) ) ;
#279 = PLANE ( 'NONE',  #363 ) ;
#280 = CARTESIAN_POINT ( 'NONE',  ( -10.20000000000000100, 0.0000000000000000000, 0.0000000000000000000 ) ) ;
#281 = DIRECTION ( 'NONE',  ( -1.000000000000000000, -0.0000000000000000000, -0.0000000000000000000 ) ) ;
#282 = DIRECTION ( 'NONE',  ( 0.0000000000000000000, 0.0000000000000000000, -1.000000000000000000 ) ) ;
#283 = PLANE ( 'NONE',  #366 ) ;
#284 = DIRECTION ( 'NONE',  ( 0.0000000000000000000, 0.0000000000000000000, 1.000000000000000000 ) ) ;
#285 = DIRECTION ( 'NONE',  ( -0.0000000000000000000, 0.0000000000000000000, 1.000000000000000000 ) ) ;
#286 = PLANE ( 'NONE',  #362 ) ;
#287 = DIRECTION ( 'NONE',  ( -1.000000000000000000, 0.0000000000000000000, -0.0000000000000000000 ) ) ;
#288 = DIRECTION ( 'NONE',  ( 0.0000000000000000000, 0.0000000000000000000, 1.000000000000000000 ) ) ;
#289 = DIRECTION ( 'NONE',  ( -1.000000000000000000, -0.0000000000000000000, -0.0000000000000000000 ) ) ;
#290 = DIRECTION ( 'NONE',  ( -1.000000000000000000, -0.0000000000000000000, -0.0000000000000000000 ) ) ;
#291 = DIRECTION ( 'NONE',  ( 1.000000000000000000, 0.0000000000000000000, 0.0000000000000000000 ) ) ;
#292 = PLANE ( 'NONE',  #166 ) ;
#293 = CARTESIAN_POINT ( 'NONE',  ( -15.00000000000000200, 6.000000000000000000, 0.0000000000000000000 ) ) ;
#294 = DIRECTION ( 'NONE',  ( -0.0000000000000000000, 0.0000000000000000000, 1.000000000000000000 ) ) ;
#295 = CARTESIAN_POINT ( 'NONE',  ( -11.50000000000000400, 0.0000000000000000000, 0.0000000000000000000 ) ) ;
#296 = CARTESIAN_POINT ( 'NONE',  ( -70.83368873109185400, 0.0000000000000000000, 0.0000000000000000000 ) ) ;
#297 = DIRECTION ( 'NONE',  ( -1.000000000000000000, -0.0000000000000000000, -0.0000000000000000000 ) ) ;
#298 = DIRECTION ( 'NONE',  ( 0.0000000000000000000, 0.0000000000000000000, 1.000000000000000000 ) ) ;
#299 = CARTESIAN_POINT ( 'NONE',  ( -70.83368873109185400, 0.0000000000000000000, 0.0000000000000000000 ) ) ;
#300 = DIRECTION ( 'NONE',  ( -1.000000000000000000, -0.0000000000000000000, -0.0000000000000000000 ) ) ;
#301 = DIRECTION ( 'NONE',  ( 0.0000000000000000000, 0.0000000000000000000, 1.000000000000000000 ) ) ;
#302 = CARTESIAN_POINT ( 'NONE',  ( -70.83368873109185400, 0.0000000000000000000, 0.0000000000000000000 ) ) ;
#303 = DIRECTION ( 'NONE',  ( 0.0000000000000000000, 0.0000000000000000000, 1.000000000000000000 ) ) ;
#304 = DIRECTION ( 'NONE',  ( -1.000000000000000000, -0.0000000000000000000, -0.0000000000000000000 ) ) ;
#305 = CARTESIAN_POINT ( 'NONE',  ( -70.83368873109185400, 0.0000000000000000000, 0.0000000000000000000 ) ) ;
#306 = DIRECTION ( 'NONE',  ( -1.000000000000000000, -0.0000000000000000000, -0.0000000000000000000 ) ) ;
#307 = DIRECTION ( 'NONE',  ( 0.0000000000000000000, 0.0000000000000000000, -1.000000000000000000 ) ) ;
#308 = DIRECTION ( 'NONE',  ( -1.000000000000000000, -0.0000000000000000000, -0.0000000000000000000 ) ) ;
#309 = CARTESIAN_POINT ( 'NONE',  ( 14.75000000000000000, 0.0000000000000000000, 0.0000000000000000000 ) ) ;
#310 = DIRECTION ( 'NONE',  ( -0.0000000000000000000, 0.0000000000000000000, 1.000000000000000000 ) ) ;
#311 = DIRECTION ( 'NONE',  ( -1.000000000000000000, -0.0000000000000000000, -0.0000000000000000000 ) ) ;
#312 = DIRECTION ( 'NONE',  ( -1.000000000000000000, 0.0000000000000000000, -0.0000000000000000000 ) ) ;
#313 = CARTESIAN_POINT ( 'NONE',  ( 10.19999999999999800, 10.50000000000000200, 0.0000000000000000000 ) ) ;
#314 = DIRECTION ( 'NONE',  ( 0.0000000000000000000, 0.0000000000000000000, 1.000000000000000000 ) ) ;
#315 = DIRECTION ( 'NONE',  ( -1.000000000000000000, 0.0000000000000000000, -0.0000000000000000000 ) ) ;
#316 = PLANE ( 'NONE',  #354 ) ;
#317 = CARTESIAN_POINT ( 'NONE',  ( 10.20000000000000100, 0.0000000000000000000, 0.0000000000000000000 ) ) ;
#318 = PLANE ( 'NONE',  #367 ) ;
#319 = ADVANCED_FACE ( 'NONE', ( #108, #104 ), #107, .T. ) ;
#320 = ADVANCED_FACE ( 'NONE', ( #145, #158 ), #316, .F. ) ;
#321 = ADVANCED_FACE ( 'NONE', ( #154, #159 ), #92, .T. ) ;
#322 = ADVANCED_FACE ( 'NONE', ( #94, #89 ), #70, .T. ) ;
#323 = ADVANCED_FACE ( 'NONE', ( #93, #22 ), #88, .F. ) ;
#324 = ADVANCED_FACE ( 'NONE', ( #90, #102 ), #129, .T. ) ;
#325 = ADVANCED_FACE ( 'NONE', ( #52, #98 ), #101, .T. ) ;
#326 = ADVANCED_FACE ( 'NONE', ( #144, #76 ), #97, .T. ) ;
#327 = ADVANCED_FACE ( 'NONE', ( #99, #73 ), #292, .F. ) ;
#328 = ADVANCED_FACE ( 'NONE', ( #77, #75 ), #86, .T. ) ;
#329 = ADVANCED_FACE ( 'NONE', ( #72, #84 ), #283, .F. ) ;
#330 = ADVANCED_FACE ( 'NONE', ( #87, #74 ), #279, .F. ) ;
#331 = ADVANCED_FACE ( 'NONE', ( #85, #83 ), #286, .F. ) ;
#332 = ADVANCED_FACE ( 'NONE', ( #82, #150 ), #318, .F. ) ;
#333 = DESIGN_CONTEXT ( 'detailed design', #195, 'design' ) ;
#334 = PRODUCT_DEFINITION_SHAPE ( 'NONE', 'NONE',  #4 ) ;
#335 = AXIS2_PLACEMENT_3D ( 'NONE', #280, #242, #240 ) ;
#336 = AXIS2_PLACEMENT_3D ( 'NONE', #276, #268, #277 ) ;
#337 = AXIS2_PLACEMENT_3D ( 'NONE', #271, #230, #229 ) ;
#338 = AXIS2_PLACEMENT_3D ( 'NONE', #237, #248, #254 ) ;
#339 = EDGE_CURVE ( 'NONE', #232, #232, #68, .T. ) ;
#340 = AXIS2_PLACEMENT_3D ( 'NONE', #239, #243, #307 ) ;
#341 = AXIS2_PLACEMENT_3D ( 'NONE', #317, #272, #273 ) ;
#342 = EDGE_CURVE ( 'NONE', #235, #235, #67, .T. ) ;
#343 = EDGE_CURVE ( 'NONE', #226, #226, #66, .T. ) ;
#344 = AXIS2_PLACEMENT_3D ( 'NONE', #259, #251, #249 ) ;
#345 = MANIFOLD_SOLID_BREP ( 'Fillet1', #149 ) ;
#346 = AXIS2_PLACEMENT_3D ( 'NONE', #261, #291, #282 ) ;
#347 = EDGE_CURVE ( 'NONE', #224, #224, #51, .T. ) ;
#348 = EDGE_CURVE ( 'NONE', #222, #222, #155, .T. ) ;
#349 = EDGE_CURVE ( 'NONE', #220, #220, #156, .T. ) ;
#350 = EDGE_CURVE ( 'NONE', #218, #218, #152, .T. ) ;
#351 = EDGE_CURVE ( 'NONE', #216, #216, #69, .T. ) ;
#352 = EDGE_CURVE ( 'NONE', #197, #197, #65, .T. ) ;
#353 = AXIS2_PLACEMENT_3D ( 'NONE', #244, #289, #288 ) ;
#354 = AXIS2_PLACEMENT_3D ( 'NONE', #184, #312, #310 ) ;
#355 = EDGE_CURVE ( 'NONE', #213, #213, #106, .T. ) ;
#356 = EDGE_CURVE ( 'NONE', #210, #210, #28, .T. ) ;
#357 = EDGE_CURVE ( 'NONE', #208, #208, #103, .T. ) ;
#358 = EDGE_CURVE ( 'NONE', #206, #206, #95, .T. ) ;
#359 = AXIS2_PLACEMENT_3D ( 'NONE', #305, #306, #314 ) ;
#360 = EDGE_CURVE ( 'NONE', #204, #204, #96, .T. ) ;
#361 = AXIS2_PLACEMENT_3D ( 'NONE', #260, #290, #303 ) ;
#362 = AXIS2_PLACEMENT_3D ( 'NONE', #194, #264, #265 ) ;
#363 = AXIS2_PLACEMENT_3D ( 'NONE', #313, #315, #294 ) ;
#364 = AXIS2_PLACEMENT_3D ( 'NONE', #247, #234, #233 ) ;
#365 = AXIS2_PLACEMENT_3D ( 'NONE', #266, #311, #284 ) ;
#366 = AXIS2_PLACEMENT_3D ( 'NONE', #252, #287, #285 ) ;
#367 = AXIS2_PLACEMENT_3D ( 'NONE', #257, #267, #269 ) ;
#368 = ADVANCED_BREP_SHAPE_REPRESENTATION ( 'LM12UU', ( #345, #2 ), #157 ) ;
#369 = UNCERTAINTY_MEASURE_WITH_UNIT (LENGTH_MEASURE( 1.000000000000000100E-005 ), #202, 'distance_accuracy_value', 'NONE');
ENDSEC;
END-ISO-10303-21;
