ISO-10303-21;
HEADER;
FILE_DESCRIPTION (( 'STEP AP203' ),
    '1' );
FILE_NAME ('LM10UU.STEP',
    '2016-05-04T13:59:28',
    ( '' ),
    ( '' ),
    'SwSTEP 2.0',
    'SolidWorks 2010',
    '' );
FILE_SCHEMA (( 'CONFIG_CONTROL_DESIGN' ));
ENDSEC;

DATA;
#1 = PERSON_AND_ORGANIZATION ( #348, #139 ) ;
#2 = CIRCLE ( 'NONE', #174, 9.250000000000001800 ) ;
#3 = EDGE_LOOP ( 'NONE', ( #131 ) ) ;
#4 = CIRCLE ( 'NONE', #338, 5.000000000000000900 ) ;
#5 = CYLINDRICAL_SURFACE ( 'NONE', #165, 9.500000000000001800 ) ;
#6 = EDGE_LOOP ( 'NONE', ( #45 ) ) ;
#7 = APPROVAL_DATE_TIME ( #25, #350 ) ;
#8 = CIRCLE ( 'NONE', #152, 9.000000000000003600 ) ;
#9 = COORDINATED_UNIVERSAL_TIME_OFFSET ( 2, 0, .AHEAD. ) ;
#10 = APPROVAL_PERSON_ORGANIZATION ( #11, #350, #209 ) ;
#11 = PERSON_AND_ORGANIZATION ( #348, #139 ) ;
#12 = EDGE_LOOP ( 'NONE', ( #46 ) ) ;
#13 = COORDINATED_UNIVERSAL_TIME_OFFSET ( 2, 0, .AHEAD. ) ;
#14 = PERSON_AND_ORGANIZATION ( #348, #139 ) ;
#15 = APPROVAL_DATE_TIME ( #32, #356 ) ;
#16 = DATE_AND_TIME ( #19, #20 ) ;
#17 = LOCAL_TIME ( 16, 59, 28.00000000000000000, #18 ) ;
#18 = COORDINATED_UNIVERSAL_TIME_OFFSET ( 2, 0, .AHEAD. ) ;
#19 = CALENDAR_DATE ( 2016, 4, 5 ) ;
#20 = LOCAL_TIME ( 16, 59, 28.00000000000000000, #13 ) ;
#21 = EDGE_LOOP ( 'NONE', ( #127 ) ) ;
#22 = LOCAL_TIME ( 16, 59, 28.00000000000000000, #23 ) ;
#23 = COORDINATED_UNIVERSAL_TIME_OFFSET ( 2, 0, .AHEAD. ) ;
#24 = APPROVAL_PERSON_ORGANIZATION ( #37, #368, #182 ) ;
#25 = DATE_AND_TIME ( #26, #28 ) ;
#26 = CALENDAR_DATE ( 2016, 4, 5 ) ;
#27 = FACE_OUTER_BOUND ( 'NONE', #93, .T. ) ;
#28 = LOCAL_TIME ( 16, 59, 28.00000000000000000, #9 ) ;
#29 = APPROVAL_DATE_TIME ( #30, #368 ) ;
#30 = DATE_AND_TIME ( #31, #22 ) ;
#31 = CALENDAR_DATE ( 2016, 4, 5 ) ;
#32 = DATE_AND_TIME ( #33, #36 ) ;
#33 = CALENDAR_DATE ( 2016, 4, 5 ) ;
#34 = ORIENTED_EDGE ( 'NONE', *, *, #337, .T. ) ;
#35 = FACE_OUTER_BOUND ( 'NONE', #141, .T. ) ;
#36 = LOCAL_TIME ( 16, 59, 28.00000000000000000, #42 ) ;
#37 = PERSON_AND_ORGANIZATION ( #348, #139 ) ;
#38 = DATE_AND_TIME ( #39, #17 ) ;
#39 = CALENDAR_DATE ( 2016, 4, 5 ) ;
#40 = EDGE_LOOP ( 'NONE', ( #119 ) ) ;
#41 = ORIENTED_EDGE ( 'NONE', *, *, #337, .F. ) ;
#42 = COORDINATED_UNIVERSAL_TIME_OFFSET ( 2, 0, .AHEAD. ) ;
#43 = APPROVAL_PERSON_ORGANIZATION ( #49, #356, #201 ) ;
#44 = ORIENTED_EDGE ( 'NONE', *, *, #340, .F. ) ;
#45 = ORIENTED_EDGE ( 'NONE', *, *, #340, .T. ) ;
#46 = ORIENTED_EDGE ( 'NONE', *, *, #153, .F. ) ;
#47 = PERSON_AND_ORGANIZATION ( #348, #139 ) ;
#48 = ORIENTED_EDGE ( 'NONE', *, *, #170, .F. ) ;
#49 = PERSON_AND_ORGANIZATION ( #348, #139 ) ;
#50 = ORIENTED_EDGE ( 'NONE', *, *, #164, .F. ) ;
#51 = ORIENTED_EDGE ( 'NONE', *, *, #342, .F. ) ;
#52 = EDGE_LOOP ( 'NONE', ( #118 ) ) ;
#53 = FACE_OUTER_BOUND ( 'NONE', #81, .T. ) ;
#54 = ORIENTED_EDGE ( 'NONE', *, *, #170, .T. ) ;
#55 = FACE_OUTER_BOUND ( 'NONE', #21, .T. ) ;
#56 = EDGE_LOOP ( 'NONE', ( #50 ) ) ;
#57 = CIRCLE ( 'NONE', #176, 9.500000000000005300 ) ;
#58 = CIRCLE ( 'NONE', #154, 9.500000000000000000 ) ;
#59 = FACE_OUTER_BOUND ( 'NONE', #98, .T. ) ;
#60 = CYLINDRICAL_SURFACE ( 'NONE', #161, 9.000000000000000000 ) ;
#61 = ORIENTED_EDGE ( 'NONE', *, *, #166, .F. ) ;
#62 = EDGE_LOOP ( 'NONE', ( #115 ) ) ;
#63 = EDGE_LOOP ( 'NONE', ( #126 ) ) ;
#64 = FACE_BOUND ( 'NONE', #105, .T. ) ;
#65 = FACE_OUTER_BOUND ( 'NONE', #63, .T. ) ;
#66 = FACE_BOUND ( 'NONE', #107, .T. ) ;
#67 = FACE_OUTER_BOUND ( 'NONE', #56, .T. ) ;
#68 = FACE_OUTER_BOUND ( 'NONE', #96, .T. ) ;
#69 = FACE_OUTER_BOUND ( 'NONE', #110, .T. ) ;
#70 = FACE_OUTER_BOUND ( 'NONE', #6, .T. ) ;
#71 = FACE_BOUND ( 'NONE', #74, .T. ) ;
#72 = FACE_OUTER_BOUND ( 'NONE', #100, .T. ) ;
#73 = FACE_BOUND ( 'NONE', #3, .T. ) ;
#74 = EDGE_LOOP ( 'NONE', ( #106 ) ) ;
#75 = CIRCLE ( 'NONE', #156, 9.500000000000000000 ) ;
#76 = CYLINDRICAL_SURFACE ( 'NONE', #175, 9.500000000000001800 ) ;
#77 = FACE_OUTER_BOUND ( 'NONE', #112, .T. ) ;
#78 = FACE_OUTER_BOUND ( 'NONE', #103, .T. ) ;
#79 = CYLINDRICAL_SURFACE ( 'NONE', #167, 9.000000000000001800 ) ;
#80 = PERSON_AND_ORGANIZATION ( #348, #139 ) ;
#81 = EDGE_LOOP ( 'NONE', ( #44 ) ) ;
#82 = FACE_OUTER_BOUND ( 'NONE', #125, .T. ) ;
#83 = CYLINDRICAL_SURFACE ( 'NONE', #163, 9.500000000000005300 ) ;
#84 = CIRCLE ( 'NONE', #160, 9.500000000000003600 ) ;
#85 = CIRCLE ( 'NONE', #148, 9.000000000000000000 ) ;
#86 = CIRCLE ( 'NONE', #159, 9.500000000000001800 ) ;
#87 = CIRCLE ( 'NONE', #349, 5.000000000000004400 ) ;
#88 = CIRCLE ( 'NONE', #358, 9.500000000000001800 ) ;
#89 = FACE_BOUND ( 'NONE', #12, .T. ) ;
#90 = FACE_BOUND ( 'NONE', #113, .T. ) ;
#91 = FACE_OUTER_BOUND ( 'NONE', #111, .T. ) ;
#92 = FACE_OUTER_BOUND ( 'NONE', #136, .T. ) ;
#93 = EDGE_LOOP ( 'NONE', ( #129 ) ) ;
#94 = FACE_OUTER_BOUND ( 'NONE', #114, .T. ) ;
#95 = FACE_OUTER_BOUND ( 'NONE', #52, .T. ) ;
#96 = EDGE_LOOP ( 'NONE', ( #104 ) ) ;
#97 = FACE_OUTER_BOUND ( 'NONE', #62, .T. ) ;
#98 = EDGE_LOOP ( 'NONE', ( #41 ) ) ;
#99 = ORIENTED_EDGE ( 'NONE', *, *, #339, .F. ) ;
#100 = EDGE_LOOP ( 'NONE', ( #120 ) ) ;
#101 = EDGE_LOOP ( 'NONE', ( #116 ) ) ;
#102 = EDGE_LOOP ( 'NONE', ( #122 ) ) ;
#103 = EDGE_LOOP ( 'NONE', ( #51 ) ) ;
#104 = ORIENTED_EDGE ( 'NONE', *, *, #343, .F. ) ;
#105 = EDGE_LOOP ( 'NONE', ( #123 ) ) ;
#106 = ORIENTED_EDGE ( 'NONE', *, *, #343, .T. ) ;
#107 = EDGE_LOOP ( 'NONE', ( #109 ) ) ;
#108 = TOROIDAL_SURFACE ( 'NONE', #157, 9.250000000000005300, 0.2500000000000000000 ) ;
#109 = ORIENTED_EDGE ( 'NONE', *, *, #164, .T. ) ;
#110 = EDGE_LOOP ( 'NONE', ( #61 ) ) ;
#111 = EDGE_LOOP ( 'NONE', ( #34 ) ) ;
#112 = EDGE_LOOP ( 'NONE', ( #54 ) ) ;
#113 = EDGE_LOOP ( 'NONE', ( #48 ) ) ;
#114 = EDGE_LOOP ( 'NONE', ( #124 ) ) ;
#115 = ORIENTED_EDGE ( 'NONE', *, *, #168, .T. ) ;
#116 = ORIENTED_EDGE ( 'NONE', *, *, #345, .T. ) ;
#117 = ORIENTED_EDGE ( 'NONE', *, *, #344, .F. ) ;
#118 = ORIENTED_EDGE ( 'NONE', *, *, #153, .T. ) ;
#119 = ORIENTED_EDGE ( 'NONE', *, *, #342, .T. ) ;
#120 = ORIENTED_EDGE ( 'NONE', *, *, #345, .F. ) ;
#121 = ORIENTED_EDGE ( 'NONE', *, *, #158, .T. ) ;
#122 = ORIENTED_EDGE ( 'NONE', *, *, #339, .T. ) ;
#123 = ORIENTED_EDGE ( 'NONE', *, *, #341, .F. ) ;
#124 = ORIENTED_EDGE ( 'NONE', *, *, #166, .T. ) ;
#125 = EDGE_LOOP ( 'NONE', ( #121 ) ) ;
#126 = ORIENTED_EDGE ( 'NONE', *, *, #341, .T. ) ;
#127 = ORIENTED_EDGE ( 'NONE', *, *, #158, .F. ) ;
#128 = FACE_OUTER_BOUND ( 'NONE', #101, .T. ) ;
#129 = ORIENTED_EDGE ( 'NONE', *, *, #168, .F. ) ;
#130 = CYLINDRICAL_SURFACE ( 'NONE', #162, 5.000000000000002700 ) ;
#131 = ORIENTED_EDGE ( 'NONE', *, *, #344, .T. ) ;
#132 = FACE_OUTER_BOUND ( 'NONE', #40, .T. ) ;
#133 = FACE_OUTER_BOUND ( 'NONE', #102, .T. ) ;
#134 = CIRCLE ( 'NONE', #149, 9.250000000000005300 ) ;
#135 = TOROIDAL_SURFACE ( 'NONE', #169, 9.250000000000001800, 0.2500000000000000000 ) ;
#136 = EDGE_LOOP ( 'NONE', ( #99 ) ) ;
#137 =( GEOMETRIC_REPRESENTATION_CONTEXT ( 3 ) GLOBAL_UNCERTAINTY_ASSIGNED_CONTEXT ( ( #346 ) ) GLOBAL_UNIT_ASSIGNED_CONTEXT ( ( #197, #196, #195 ) ) REPRESENTATION_CONTEXT ( 'NONE', 'WORKASPACE' ) );
#138 = SHAPE_DEFINITION_REPRESENTATION ( #336, #369 ) ;
#139 = ORGANIZATION ( 'UNSPECIFIED', 'UNSPECIFIED', '' ) ;
#140 = PERSON_AND_ORGANIZATION ( #348, #139 ) ;
#141 = EDGE_LOOP ( 'NONE', ( #117 ) ) ;
#142 = CLOSED_SHELL ( 'NONE', ( #329, #330, #332, #331, #321, #326, #328, #324, #327, #325, #322, #323, #333, #334 ) ) ;
#143 = CIRCLE ( 'NONE', #146, 9.000000000000001800 ) ;
#144 = CIRCLE ( 'NONE', #171, 9.000000000000000000 ) ;
#145 = AXIS2_PLACEMENT_3D ( 'NONE', #296, #266, #298 ) ;
#146 = AXIS2_PLACEMENT_3D ( 'NONE', #286, #243, #242 ) ;
#147 = AXIS2_PLACEMENT_3D ( 'NONE', #287, #311, #254 ) ;
#148 = AXIS2_PLACEMENT_3D ( 'NONE', #200, #314, #313 ) ;
#149 = AXIS2_PLACEMENT_3D ( 'NONE', #273, #255, #263 ) ;
#150 = AXIS2_PLACEMENT_3D ( 'NONE', #257, #272, #270 ) ;
#151 = AXIS2_PLACEMENT_3D ( 'NONE', #208, #237, #194 ) ;
#152 = AXIS2_PLACEMENT_3D ( 'NONE', #310, #306, #305 ) ;
#153 = EDGE_CURVE ( 'NONE', #238, #238, #4, .T. ) ;
#154 = AXIS2_PLACEMENT_3D ( 'NONE', #285, #276, #288 ) ;
#155 = AXIS2_PLACEMENT_3D ( 'NONE', #293, #301, #278 ) ;
#156 = AXIS2_PLACEMENT_3D ( 'NONE', #274, #249, #277 ) ;
#157 = AXIS2_PLACEMENT_3D ( 'NONE', #289, #265, #268 ) ;
#158 = EDGE_CURVE ( 'NONE', #241, #241, #86, .T. ) ;
#159 = AXIS2_PLACEMENT_3D ( 'NONE', #246, #181, #317 ) ;
#160 = AXIS2_PLACEMENT_3D ( 'NONE', #219, #247, #228 ) ;
#161 = AXIS2_PLACEMENT_3D ( 'NONE', #248, #283, #292 ) ;
#162 = AXIS2_PLACEMENT_3D ( 'NONE', #299, #300, #302 ) ;
#163 = AXIS2_PLACEMENT_3D ( 'NONE', #258, #294, #295 ) ;
#164 = EDGE_CURVE ( 'NONE', #232, #232, #85, .T. ) ;
#165 = AXIS2_PLACEMENT_3D ( 'NONE', #245, #303, #304 ) ;
#166 = EDGE_CURVE ( 'NONE', #229, #229, #84, .T. ) ;
#167 = AXIS2_PLACEMENT_3D ( 'NONE', #262, #261, #260 ) ;
#168 = EDGE_CURVE ( 'NONE', #226, #226, #2, .T. ) ;
#169 = AXIS2_PLACEMENT_3D ( 'NONE', #269, #315, #319 ) ;
#170 = EDGE_CURVE ( 'NONE', #223, #223, #8, .T. ) ;
#171 = AXIS2_PLACEMENT_3D ( 'NONE', #280, #252, #251 ) ;
#172 = AXIS2_PLACEMENT_3D ( 'NONE', #275, #253, #256 ) ;
#173 = AXIS2_PLACEMENT_3D ( 'NONE', #308, #281, #318 ) ;
#174 = AXIS2_PLACEMENT_3D ( 'NONE', #316, #271, #309 ) ;
#175 = AXIS2_PLACEMENT_3D ( 'NONE', #264, #291, #282 ) ;
#176 = AXIS2_PLACEMENT_3D ( 'NONE', #290, #259, #279 ) ;
#177 = DATE_TIME_ROLE ( 'classification_date' ) ;
#178 = PERSON_AND_ORGANIZATION_ROLE ( 'classification_officer' ) ;
#179 = SECURITY_CLASSIFICATION_LEVEL ( 'unclassified' ) ;
#180 = PERSON_AND_ORGANIZATION_ROLE ( 'design_supplier' ) ;
#181 = DIRECTION ( 'NONE',  ( 1.000000000000000000, 0.0000000000000000000, 0.0000000000000000000 ) ) ;
#182 = APPROVAL_ROLE ( '' ) ;
#183 = PERSON_AND_ORGANIZATION_ROLE ( 'creator' ) ;
#184 = APPROVAL_STATUS ( 'not_yet_approved' ) ;
#185 = PERSON_AND_ORGANIZATION_ROLE ( 'creator' ) ;
#186 = APPROVAL_STATUS ( 'not_yet_approved' ) ;
#187 = APPLICATION_PROTOCOL_DEFINITION ( 'international standard', 'config_control_design', 1994, #188 ) ;
#188 = APPLICATION_CONTEXT ( 'configuration controlled 3d designs of mechanical parts and assemblies' ) ;
#189 = PERSON_AND_ORGANIZATION_ROLE ( 'design_owner' ) ;
#190 = MECHANICAL_CONTEXT ( 'NONE', #192, 'mechanical' ) ;
#191 = APPLICATION_PROTOCOL_DEFINITION ( 'international standard', 'config_control_design', 1994, #192 ) ;
#192 = APPLICATION_CONTEXT ( 'configuration controlled 3d designs of mechanical parts and assemblies' ) ;
#193 = DIRECTION ( 'NONE',  ( 0.0000000000000000000, 0.0000000000000000000, 1.000000000000000000 ) ) ;
#194 = DIRECTION ( 'NONE',  ( 1.000000000000000000, 0.0000000000000000000, 0.0000000000000000000 ) ) ;
#195 =( NAMED_UNIT ( * ) SI_UNIT ( $, .STERADIAN. ) SOLID_ANGLE_UNIT ( ) );
#196 =( NAMED_UNIT ( * ) PLANE_ANGLE_UNIT ( ) SI_UNIT ( $, .RADIAN. ) );
#197 =( LENGTH_UNIT ( ) NAMED_UNIT ( * ) SI_UNIT ( .MILLI., .METRE. ) );
#198 = CARTESIAN_POINT ( 'NONE',  ( 9.700000000000001100, 0.0000000000000000000, 9.500000000000001800 ) ) ;
#199 = VERTEX_POINT ( 'NONE', #198 ) ;
#200 = CARTESIAN_POINT ( 'NONE',  ( -11.00000000000000400, 0.0000000000000000000, 0.0000000000000000000 ) ) ;
#201 = APPROVAL_ROLE ( '' ) ;
#202 = DATE_TIME_ROLE ( 'creation_date' ) ;
#203 = CARTESIAN_POINT ( 'NONE',  ( 14.49999999999999800, 0.0000000000000000000, 5.000000000000004400 ) ) ;
#204 = PLANE ( 'NONE',  #172 ) ;
#205 = VERTEX_POINT ( 'NONE', #203 ) ;
#206 = CARTESIAN_POINT ( 'NONE',  ( 9.700000000000001100, 0.0000000000000000000, 9.000000000000001800 ) ) ;
#207 = VERTEX_POINT ( 'NONE', #206 ) ;
#208 = CARTESIAN_POINT ( 'NONE',  ( 0.0000000000000000000, 0.0000000000000000000, 0.0000000000000000000 ) ) ;
#209 = APPROVAL_ROLE ( '' ) ;
#210 = APPROVAL_STATUS ( 'not_yet_approved' ) ;
#211 = CARTESIAN_POINT ( 'NONE',  ( -11.00000000000000400, 0.0000000000000000000, 9.500000000000000000 ) ) ;
#212 = VERTEX_POINT ( 'NONE', #211 ) ;
#213 = CARTESIAN_POINT ( 'NONE',  ( -9.700000000000001100, 0.0000000000000000000, 9.000000000000000000 ) ) ;
#214 = VERTEX_POINT ( 'NONE', #213 ) ;
#215 = CARTESIAN_POINT ( 'NONE',  ( 14.24999999999999800, 0.0000000000000000000, 9.500000000000005300 ) ) ;
#216 = VERTEX_POINT ( 'NONE', #215 ) ;
#217 = CARTESIAN_POINT ( 'NONE',  ( -9.700000000000001100, 0.0000000000000000000, 9.500000000000000000 ) ) ;
#218 = VERTEX_POINT ( 'NONE', #217 ) ;
#219 = CARTESIAN_POINT ( 'NONE',  ( 10.99999999999999600, 0.0000000000000000000, 0.0000000000000000000 ) ) ;
#220 = CARTESIAN_POINT ( 'NONE',  ( 14.50000000000000000, 0.0000000000000000000, 9.250000000000005300 ) ) ;
#221 = VERTEX_POINT ( 'NONE', #220 ) ;
#222 = CARTESIAN_POINT ( 'NONE',  ( 10.99999999999999600, 0.0000000000000000000, 9.000000000000003600 ) ) ;
#223 = VERTEX_POINT ( 'NONE', #222 ) ;
#224 = DIRECTION ( 'NONE',  ( -1.000000000000000000, -0.0000000000000000000, -0.0000000000000000000 ) ) ;
#225 = CARTESIAN_POINT ( 'NONE',  ( -14.50000000000000200, 0.0000000000000000000, -9.250000000000001800 ) ) ;
#226 = VERTEX_POINT ( 'NONE', #225 ) ;
#227 = CARTESIAN_POINT ( 'NONE',  ( 10.99999999999999600, 0.0000000000000000000, 9.500000000000003600 ) ) ;
#228 = DIRECTION ( 'NONE',  ( 0.0000000000000000000, 0.0000000000000000000, 1.000000000000000000 ) ) ;
#229 = VERTEX_POINT ( 'NONE', #227 ) ;
#230 = CARTESIAN_POINT ( 'NONE',  ( -14.49999999999999800, 0.0000000000000000000, 0.0000000000000000000 ) ) ;
#231 = CARTESIAN_POINT ( 'NONE',  ( -11.00000000000000400, 0.0000000000000000000, 9.000000000000000000 ) ) ;
#232 = VERTEX_POINT ( 'NONE', #231 ) ;
#233 = CARTESIAN_POINT ( 'NONE',  ( -14.24999999999999800, 0.0000000000000000000, -9.500000000000001800 ) ) ;
#234 = CARTESIAN_POINT ( 'NONE',  ( -14.49999999999999800, 0.0000000000000000000, 5.000000000000000900 ) ) ;
#235 = DIRECTION ( 'NONE',  ( 0.0000000000000000000, 0.0000000000000000000, 1.000000000000000000 ) ) ;
#236 = DIRECTION ( 'NONE',  ( -1.000000000000000000, -0.0000000000000000000, -0.0000000000000000000 ) ) ;
#237 = DIRECTION ( 'NONE',  ( 0.0000000000000000000, 0.0000000000000000000, 1.000000000000000000 ) ) ;
#238 = VERTEX_POINT ( 'NONE', #234 ) ;
#239 = DIRECTION ( 'NONE',  ( 0.0000000000000000000, 0.0000000000000000000, 1.000000000000000000 ) ) ;
#240 = DIRECTION ( 'NONE',  ( -1.000000000000000000, -0.0000000000000000000, -0.0000000000000000000 ) ) ;
#241 = VERTEX_POINT ( 'NONE', #233 ) ;
#242 = DIRECTION ( 'NONE',  ( 0.0000000000000000000, 0.0000000000000000000, 1.000000000000000000 ) ) ;
#243 = DIRECTION ( 'NONE',  ( -1.000000000000000000, -0.0000000000000000000, -0.0000000000000000000 ) ) ;
#244 = CARTESIAN_POINT ( 'NONE',  ( 9.700000000000001100, 0.0000000000000000000, 0.0000000000000000000 ) ) ;
#245 = CARTESIAN_POINT ( 'NONE',  ( -70.83368873109185400, 0.0000000000000000000, 0.0000000000000000000 ) ) ;
#246 = CARTESIAN_POINT ( 'NONE',  ( -14.24999999999999800, 0.0000000000000000000, 0.0000000000000000000 ) ) ;
#247 = DIRECTION ( 'NONE',  ( -1.000000000000000000, -0.0000000000000000000, -0.0000000000000000000 ) ) ;
#248 = CARTESIAN_POINT ( 'NONE',  ( -70.83368873109185400, 0.0000000000000000000, 0.0000000000000000000 ) ) ;
#249 = DIRECTION ( 'NONE',  ( -1.000000000000000000, -0.0000000000000000000, -0.0000000000000000000 ) ) ;
#250 = CARTESIAN_POINT ( 'NONE',  ( 14.49999999999999800, 0.0000000000000000000, 0.0000000000000000000 ) ) ;
#251 = DIRECTION ( 'NONE',  ( 0.0000000000000000000, 0.0000000000000000000, 1.000000000000000000 ) ) ;
#252 = DIRECTION ( 'NONE',  ( -1.000000000000000000, -0.0000000000000000000, -0.0000000000000000000 ) ) ;
#253 = DIRECTION ( 'NONE',  ( -1.000000000000000000, 0.0000000000000000000, -0.0000000000000000000 ) ) ;
#254 = DIRECTION ( 'NONE',  ( -0.0000000000000000000, 0.0000000000000000000, 1.000000000000000000 ) ) ;
#255 = DIRECTION ( 'NONE',  ( 1.000000000000000000, 0.0000000000000000000, 0.0000000000000000000 ) ) ;
#256 = DIRECTION ( 'NONE',  ( -0.0000000000000000000, 0.0000000000000000000, 1.000000000000000000 ) ) ;
#257 = CARTESIAN_POINT ( 'NONE',  ( -9.700000000000001100, 9.000000000000000000, 0.0000000000000000000 ) ) ;
#258 = CARTESIAN_POINT ( 'NONE',  ( -70.83368873109185400, 0.0000000000000000000, 0.0000000000000000000 ) ) ;
#259 = DIRECTION ( 'NONE',  ( -1.000000000000000000, -0.0000000000000000000, -0.0000000000000000000 ) ) ;
#260 = DIRECTION ( 'NONE',  ( 0.0000000000000000000, 0.0000000000000000000, 1.000000000000000000 ) ) ;
#261 = DIRECTION ( 'NONE',  ( -1.000000000000000000, -0.0000000000000000000, -0.0000000000000000000 ) ) ;
#262 = CARTESIAN_POINT ( 'NONE',  ( -70.83368873109185400, 0.0000000000000000000, 0.0000000000000000000 ) ) ;
#263 = DIRECTION ( 'NONE',  ( 0.0000000000000000000, 0.0000000000000000000, 1.000000000000000000 ) ) ;
#264 = CARTESIAN_POINT ( 'NONE',  ( -70.83368873109185400, 0.0000000000000000000, 0.0000000000000000000 ) ) ;
#265 = DIRECTION ( 'NONE',  ( -1.000000000000000000, -0.0000000000000000000, -0.0000000000000000000 ) ) ;
#266 = DIRECTION ( 'NONE',  ( 1.000000000000000000, 0.0000000000000000000, 0.0000000000000000000 ) ) ;
#267 = PLANE ( 'NONE',  #155 ) ;
#268 = DIRECTION ( 'NONE',  ( 0.0000000000000000000, 0.0000000000000000000, 1.000000000000000000 ) ) ;
#269 = CARTESIAN_POINT ( 'NONE',  ( -14.24999999999999800, 0.0000000000000000000, 0.0000000000000000000 ) ) ;
#270 = DIRECTION ( 'NONE',  ( 0.0000000000000000000, 0.0000000000000000000, -1.000000000000000000 ) ) ;
#271 = DIRECTION ( 'NONE',  ( -1.000000000000000000, -0.0000000000000000000, -0.0000000000000000000 ) ) ;
#272 = DIRECTION ( 'NONE',  ( 1.000000000000000000, 0.0000000000000000000, 0.0000000000000000000 ) ) ;
#273 = CARTESIAN_POINT ( 'NONE',  ( 14.50000000000000000, 0.0000000000000000000, 0.0000000000000000000 ) ) ;
#274 = CARTESIAN_POINT ( 'NONE',  ( -11.00000000000000400, 0.0000000000000000000, 0.0000000000000000000 ) ) ;
#275 = CARTESIAN_POINT ( 'NONE',  ( 9.699999999999997500, 9.500000000000001800, 0.0000000000000000000 ) ) ;
#276 = DIRECTION ( 'NONE',  ( -1.000000000000000000, -0.0000000000000000000, -0.0000000000000000000 ) ) ;
#277 = DIRECTION ( 'NONE',  ( 0.0000000000000000000, 0.0000000000000000000, 1.000000000000000000 ) ) ;
#278 = DIRECTION ( 'NONE',  ( -0.0000000000000000000, 0.0000000000000000000, 1.000000000000000000 ) ) ;
#279 = DIRECTION ( 'NONE',  ( 0.0000000000000000000, 0.0000000000000000000, 1.000000000000000000 ) ) ;
#280 = CARTESIAN_POINT ( 'NONE',  ( -9.700000000000001100, 0.0000000000000000000, 0.0000000000000000000 ) ) ;
#281 = DIRECTION ( 'NONE',  ( 1.000000000000000000, 0.0000000000000000000, 0.0000000000000000000 ) ) ;
#282 = DIRECTION ( 'NONE',  ( 0.0000000000000000000, 0.0000000000000000000, 1.000000000000000000 ) ) ;
#283 = DIRECTION ( 'NONE',  ( -1.000000000000000000, -0.0000000000000000000, -0.0000000000000000000 ) ) ;
#284 = PLANE ( 'NONE',  #145 ) ;
#285 = CARTESIAN_POINT ( 'NONE',  ( -9.700000000000001100, 0.0000000000000000000, 0.0000000000000000000 ) ) ;
#286 = CARTESIAN_POINT ( 'NONE',  ( 9.700000000000001100, 0.0000000000000000000, 0.0000000000000000000 ) ) ;
#287 = CARTESIAN_POINT ( 'NONE',  ( -11.00000000000000400, 9.500000000000000000, 0.0000000000000000000 ) ) ;
#288 = DIRECTION ( 'NONE',  ( 0.0000000000000000000, 0.0000000000000000000, 1.000000000000000000 ) ) ;
#289 = CARTESIAN_POINT ( 'NONE',  ( 14.24999999999999800, 0.0000000000000000000, 0.0000000000000000000 ) ) ;
#290 = CARTESIAN_POINT ( 'NONE',  ( 14.24999999999999800, 0.0000000000000000000, 0.0000000000000000000 ) ) ;
#291 = DIRECTION ( 'NONE',  ( -1.000000000000000000, -0.0000000000000000000, -0.0000000000000000000 ) ) ;
#292 = DIRECTION ( 'NONE',  ( 0.0000000000000000000, 0.0000000000000000000, 1.000000000000000000 ) ) ;
#293 = CARTESIAN_POINT ( 'NONE',  ( 14.50000000000000000, 9.500000000000005300, 0.0000000000000000000 ) ) ;
#294 = DIRECTION ( 'NONE',  ( -1.000000000000000000, -0.0000000000000000000, -0.0000000000000000000 ) ) ;
#295 = DIRECTION ( 'NONE',  ( 0.0000000000000000000, 0.0000000000000000000, 1.000000000000000000 ) ) ;
#296 = CARTESIAN_POINT ( 'NONE',  ( -14.50000000000000200, 5.000000000000000900, 0.0000000000000000000 ) ) ;
#297 = PLANE ( 'NONE',  #147 ) ;
#298 = DIRECTION ( 'NONE',  ( 0.0000000000000000000, 0.0000000000000000000, -1.000000000000000000 ) ) ;
#299 = CARTESIAN_POINT ( 'NONE',  ( -70.83368873109185400, 0.0000000000000000000, 0.0000000000000000000 ) ) ;
#300 = DIRECTION ( 'NONE',  ( -1.000000000000000000, -0.0000000000000000000, -0.0000000000000000000 ) ) ;
#301 = DIRECTION ( 'NONE',  ( -1.000000000000000000, 0.0000000000000000000, -0.0000000000000000000 ) ) ;
#302 = DIRECTION ( 'NONE',  ( 0.0000000000000000000, 0.0000000000000000000, 1.000000000000000000 ) ) ;
#303 = DIRECTION ( 'NONE',  ( -1.000000000000000000, -0.0000000000000000000, -0.0000000000000000000 ) ) ;
#304 = DIRECTION ( 'NONE',  ( 0.0000000000000000000, 0.0000000000000000000, 1.000000000000000000 ) ) ;
#305 = DIRECTION ( 'NONE',  ( 0.0000000000000000000, 0.0000000000000000000, 1.000000000000000000 ) ) ;
#306 = DIRECTION ( 'NONE',  ( -1.000000000000000000, -0.0000000000000000000, -0.0000000000000000000 ) ) ;
#307 = PLANE ( 'NONE',  #173 ) ;
#308 = CARTESIAN_POINT ( 'NONE',  ( 11.00000000000000000, 9.000000000000003600, 0.0000000000000000000 ) ) ;
#309 = DIRECTION ( 'NONE',  ( 0.0000000000000000000, 0.0000000000000000000, -1.000000000000000000 ) ) ;
#310 = CARTESIAN_POINT ( 'NONE',  ( 10.99999999999999600, 0.0000000000000000000, 0.0000000000000000000 ) ) ;
#311 = DIRECTION ( 'NONE',  ( -1.000000000000000000, 0.0000000000000000000, -0.0000000000000000000 ) ) ;
#312 = PLANE ( 'NONE',  #150 ) ;
#313 = DIRECTION ( 'NONE',  ( 0.0000000000000000000, 0.0000000000000000000, 1.000000000000000000 ) ) ;
#314 = DIRECTION ( 'NONE',  ( -1.000000000000000000, -0.0000000000000000000, -0.0000000000000000000 ) ) ;
#315 = DIRECTION ( 'NONE',  ( 1.000000000000000000, 0.0000000000000000000, 0.0000000000000000000 ) ) ;
#316 = CARTESIAN_POINT ( 'NONE',  ( -14.50000000000000200, 0.0000000000000000000, 0.0000000000000000000 ) ) ;
#317 = DIRECTION ( 'NONE',  ( 0.0000000000000000000, 0.0000000000000000000, -1.000000000000000000 ) ) ;
#318 = DIRECTION ( 'NONE',  ( 0.0000000000000000000, 0.0000000000000000000, -1.000000000000000000 ) ) ;
#319 = DIRECTION ( 'NONE',  ( 0.0000000000000000000, 0.0000000000000000000, -1.000000000000000000 ) ) ;
#320 = MANIFOLD_SOLID_BREP ( 'Fillet1', #142 ) ;
#321 = ADVANCED_FACE ( 'NONE', ( #92, #128 ), #5, .T. ) ;
#322 = ADVANCED_FACE ( 'NONE', ( #35, #95 ), #130, .F. ) ;
#323 = ADVANCED_FACE ( 'NONE', ( #97, #89 ), #284, .F. ) ;
#324 = ADVANCED_FACE ( 'NONE', ( #90, #94 ), #307, .F. ) ;
#325 = ADVANCED_FACE ( 'NONE', ( #91, #73 ), #267, .F. ) ;
#326 = ADVANCED_FACE ( 'NONE', ( #72, #71 ), #204, .F. ) ;
#327 = ADVANCED_FACE ( 'NONE', ( #70, #69 ), #83, .T. ) ;
#328 = ADVANCED_FACE ( 'NONE', ( #68, #77 ), #79, .T. ) ;
#329 = ADVANCED_FACE ( 'NONE', ( #82, #132 ), #76, .T. ) ;
#330 = ADVANCED_FACE ( 'NONE', ( #78, #66 ), #297, .F. ) ;
#331 = ADVANCED_FACE ( 'NONE', ( #64, #133 ), #312, .F. ) ;
#332 = ADVANCED_FACE ( 'NONE', ( #67, #65 ), #60, .T. ) ;
#333 = ADVANCED_FACE ( 'NONE', ( #59, #53 ), #108, .T. ) ;
#334 = ADVANCED_FACE ( 'NONE', ( #55, #27 ), #135, .T. ) ;
#335 = DESIGN_CONTEXT ( 'detailed design', #188, 'design' ) ;
#336 = PRODUCT_DEFINITION_SHAPE ( 'NONE', 'NONE',  #355 ) ;
#337 = EDGE_CURVE ( 'NONE', #221, #221, #134, .T. ) ;
#338 = AXIS2_PLACEMENT_3D ( 'NONE', #230, #224, #193 ) ;
#339 = EDGE_CURVE ( 'NONE', #218, #218, #58, .T. ) ;
#340 = EDGE_CURVE ( 'NONE', #216, #216, #57, .T. ) ;
#341 = EDGE_CURVE ( 'NONE', #214, #214, #144, .T. ) ;
#342 = EDGE_CURVE ( 'NONE', #212, #212, #75, .T. ) ;
#343 = EDGE_CURVE ( 'NONE', #207, #207, #143, .T. ) ;
#344 = EDGE_CURVE ( 'NONE', #205, #205, #87, .T. ) ;
#345 = EDGE_CURVE ( 'NONE', #199, #199, #88, .T. ) ;
#346 = UNCERTAINTY_MEASURE_WITH_UNIT (LENGTH_MEASURE( 1.000000000000000100E-005 ), #197, 'distance_accuracy_value', 'NONE');
#347 = PRODUCT ( 'LM10UU', 'LM10UU', '', ( #190 ) ) ;
#348 = PERSON ( 'UNSPECIFIED', 'UNSPECIFIED', 'UNSPECIFIED', ('UNSPECIFIED'), ('UNSPECIFIED'), ('UNSPECIFIED') ) ;
#349 = AXIS2_PLACEMENT_3D ( 'NONE', #250, #240, #239 ) ;
#350 = APPROVAL ( #184, 'UNSPECIFIED' ) ;
#351 = CC_DESIGN_PERSON_AND_ORGANIZATION_ASSIGNMENT ( #47, #180, ( #352 ) ) ;
#352 = PRODUCT_DEFINITION_FORMATION_WITH_SPECIFIED_SOURCE ( 'ANY', '', #347, .NOT_KNOWN. ) ;
#353 = CC_DESIGN_PERSON_AND_ORGANIZATION_ASSIGNMENT ( #14, #185, ( #355 ) ) ;
#354 = CC_DESIGN_APPROVAL ( #350, ( #352 ) ) ;
#355 = PRODUCT_DEFINITION ( 'UNKNOWN', '', #352, #335 ) ;
#356 = APPROVAL ( #186, 'UNSPECIFIED' ) ;
#357 = CC_DESIGN_PERSON_AND_ORGANIZATION_ASSIGNMENT ( #1, #183, ( #352 ) ) ;
#358 = AXIS2_PLACEMENT_3D ( 'NONE', #244, #236, #235 ) ;
#359 = CC_DESIGN_PERSON_AND_ORGANIZATION_ASSIGNMENT ( #140, #189, ( #347 ) ) ;
#360 = CC_DESIGN_APPROVAL ( #356, ( #355 ) ) ;
#361 = CC_DESIGN_DATE_AND_TIME_ASSIGNMENT ( #16, #202, ( #355 ) ) ;
#362 = CC_DESIGN_DATE_AND_TIME_ASSIGNMENT ( #38, #177, ( #363 ) ) ;
#363 = SECURITY_CLASSIFICATION ( '', '', #179 ) ;
#364 = CC_DESIGN_SECURITY_CLASSIFICATION ( #363, ( #352 ) ) ;
#365 = PRODUCT_RELATED_PRODUCT_CATEGORY ( 'detail', '', ( #347 ) ) ;
#366 = CC_DESIGN_PERSON_AND_ORGANIZATION_ASSIGNMENT ( #80, #178, ( #363 ) ) ;
#367 = CC_DESIGN_APPROVAL ( #368, ( #363 ) ) ;
#368 = APPROVAL ( #210, 'UNSPECIFIED' ) ;
#369 = ADVANCED_BREP_SHAPE_REPRESENTATION ( 'LM10UU', ( #320, #151 ), #137 ) ;
ENDSEC;
END-ISO-10303-21;
