ISO-10303-21;
HEADER;
FILE_DESCRIPTION (( 'STEP AP203' ),
    '1' );
FILE_NAME ('LM6UU.STEP',
    '2016-05-04T13:57:16',
    ( '' ),
    ( '' ),
    'SwSTEP 2.0',
    'SolidWorks 2010',
    '' );
FILE_SCHEMA (( 'CONFIG_CONTROL_DESIGN' ));
ENDSEC;

DATA;
#1 = PERSON_AND_ORGANIZATION ( #161, #11 ) ;
#2 =( GEOMETRIC_REPRESENTATION_CONTEXT ( 3 ) GLOBAL_UNCERTAINTY_ASSIGNED_CONTEXT ( ( #368 ) ) GLOBAL_UNIT_ASSIGNED_CONTEXT ( ( #217, #287, #244 ) ) REPRESENTATION_CONTEXT ( 'NONE', 'WORKASPACE' ) );
#3 = ORIENTED_EDGE ( 'NONE', *, *, #157, .T. ) ;
#4 = ORIENTED_EDGE ( 'NONE', *, *, #150, .T. ) ;
#5 = FACE_OUTER_BOUND ( 'NONE', #144, .T. ) ;
#6 = FACE_OUTER_BOUND ( 'NONE', #25, .T. ) ;
#7 = PERSON_AND_ORGANIZATION ( #161, #11 ) ;
#8 = PERSON_AND_ORGANIZATION ( #161, #11 ) ;
#9 = APPROVAL_DATE_TIME ( #13, #365 ) ;
#10 = PERSON_AND_ORGANIZATION ( #161, #11 ) ;
#11 = ORGANIZATION ( 'UNSPECIFIED', 'UNSPECIFIED', '' ) ;
#12 = SHAPE_DEFINITION_REPRESENTATION ( #320, #369 ) ;
#13 = DATE_AND_TIME ( #14, #17 ) ;
#14 = CALENDAR_DATE ( 2016, 4, 5 ) ;
#15 = CIRCLE ( 'NONE', #347, 5.750000000000001800 ) ;
#16 = EDGE_LOOP ( 'NONE', ( #102 ) ) ;
#17 = LOCAL_TIME ( 16, 57, 16.00000000000000000, #130 ) ;
#18 = DATE_AND_TIME ( #21, #22 ) ;
#19 = CIRCLE ( 'NONE', #353, 6.000000000000001800 ) ;
#20 = CYLINDRICAL_SURFACE ( 'NONE', #330, 6.000000000000001800 ) ;
#21 = CALENDAR_DATE ( 2016, 4, 5 ) ;
#22 = LOCAL_TIME ( 16, 57, 16.00000000000000000, #33 ) ;
#23 = CIRCLE ( 'NONE', #349, 5.750000000000000000 ) ;
#24 = CIRCLE ( 'NONE', #351, 5.750000000000001800 ) ;
#25 = EDGE_LOOP ( 'NONE', ( #73 ) ) ;
#26 = FACE_OUTER_BOUND ( 'NONE', #90, .T. ) ;
#27 = ORIENTED_EDGE ( 'NONE', *, *, #149, .T. ) ;
#28 = DATE_AND_TIME ( #29, #30 ) ;
#29 = CALENDAR_DATE ( 2016, 4, 5 ) ;
#30 = LOCAL_TIME ( 16, 57, 16.00000000000000000, #40 ) ;
#31 = EDGE_LOOP ( 'NONE', ( #142 ) ) ;
#32 = EDGE_LOOP ( 'NONE', ( #101 ) ) ;
#33 = COORDINATED_UNIVERSAL_TIME_OFFSET ( 2, 0, .AHEAD. ) ;
#34 = PERSON_AND_ORGANIZATION ( #161, #11 ) ;
#35 = APPROVAL_DATE_TIME ( #28, #331 ) ;
#36 = CYLINDRICAL_SURFACE ( 'NONE', #362, 5.750000000000000000 ) ;
#37 = TOROIDAL_SURFACE ( 'NONE', #359, 5.750000000000000000, 0.2500000000000000000 ) ;
#38 = FACE_OUTER_BOUND ( 'NONE', #139, .T. ) ;
#39 = EDGE_LOOP ( 'NONE', ( #78 ) ) ;
#40 = COORDINATED_UNIVERSAL_TIME_OFFSET ( 2, 0, .AHEAD. ) ;
#41 = APPROVAL_PERSON_ORGANIZATION ( #42, #331, #164 ) ;
#42 = PERSON_AND_ORGANIZATION ( #161, #11 ) ;
#43 = APPROVAL_DATE_TIME ( #45, #334 ) ;
#44 = EDGE_LOOP ( 'NONE', ( #4 ) ) ;
#45 = DATE_AND_TIME ( #46, #52 ) ;
#46 = CALENDAR_DATE ( 2016, 4, 5 ) ;
#47 = FACE_OUTER_BOUND ( 'NONE', #31, .T. ) ;
#48 = LOCAL_TIME ( 16, 57, 16.00000000000000000, #49 ) ;
#49 = COORDINATED_UNIVERSAL_TIME_OFFSET ( 2, 0, .AHEAD. ) ;
#50 = ORIENTED_EDGE ( 'NONE', *, *, #155, .F. ) ;
#51 = PERSON_AND_ORGANIZATION ( #161, #11 ) ;
#52 = LOCAL_TIME ( 16, 57, 16.00000000000000000, #54 ) ;
#53 = EDGE_LOOP ( 'NONE', ( #75 ) ) ;
#54 = COORDINATED_UNIVERSAL_TIME_OFFSET ( 2, 0, .AHEAD. ) ;
#55 = CIRCLE ( 'NONE', #344, 5.750000000000000000 ) ;
#56 = APPROVAL_PERSON_ORGANIZATION ( #58, #334, #191 ) ;
#57 = CALENDAR_DATE ( 2016, 4, 5 ) ;
#58 = PERSON_AND_ORGANIZATION ( #161, #11 ) ;
#59 = DATE_AND_TIME ( #57, #48 ) ;
#60 = EDGE_LOOP ( 'NONE', ( #85 ) ) ;
#61 = CIRCLE ( 'NONE', #350, 5.750000000000001800 ) ;
#62 = CIRCLE ( 'NONE', #352, 6.000000000000000000 ) ;
#63 = CIRCLE ( 'NONE', #340, 6.000000000000001800 ) ;
#64 = TOROIDAL_SURFACE ( 'NONE', #348, 5.750000000000001800, 0.2500000000000000000 ) ;
#65 = ORIENTED_EDGE ( 'NONE', *, *, #154, .T. ) ;
#66 = FACE_BOUND ( 'NONE', #109, .T. ) ;
#67 = CIRCLE ( 'NONE', #326, 5.750000000000000000 ) ;
#68 = CIRCLE ( 'NONE', #333, 6.000000000000001800 ) ;
#69 = FACE_OUTER_BOUND ( 'NONE', #108, .T. ) ;
#70 = EDGE_LOOP ( 'NONE', ( #100 ) ) ;
#71 = FACE_OUTER_BOUND ( 'NONE', #115, .T. ) ;
#72 = ORIENTED_EDGE ( 'NONE', *, *, #146, .T. ) ;
#73 = ORIENTED_EDGE ( 'NONE', *, *, #146, .F. ) ;
#74 = CIRCLE ( 'NONE', #325, 3.000000000000002200 ) ;
#75 = ORIENTED_EDGE ( 'NONE', *, *, #156, .F. ) ;
#76 = CIRCLE ( 'NONE', #145, 3.000000000000000000 ) ;
#77 = FACE_OUTER_BOUND ( 'NONE', #44, .T. ) ;
#78 = ORIENTED_EDGE ( 'NONE', *, *, #149, .F. ) ;
#79 = CIRCLE ( 'NONE', #152, 6.000000000000000000 ) ;
#80 = CYLINDRICAL_SURFACE ( 'NONE', #332, 6.000000000000000900 ) ;
#81 = FACE_OUTER_BOUND ( 'NONE', #111, .T. ) ;
#82 = ORIENTED_EDGE ( 'NONE', *, *, #153, .T. ) ;
#83 = ORIENTED_EDGE ( 'NONE', *, *, #151, .F. ) ;
#84 = ORIENTED_EDGE ( 'NONE', *, *, #159, .F. ) ;
#85 = ORIENTED_EDGE ( 'NONE', *, *, #148, .T. ) ;
#86 = ORIENTED_EDGE ( 'NONE', *, *, #155, .T. ) ;
#87 = FACE_BOUND ( 'NONE', #60, .T. ) ;
#88 = ORIENTED_EDGE ( 'NONE', *, *, #158, .F. ) ;
#89 = FACE_OUTER_BOUND ( 'NONE', #53, .T. ) ;
#90 = EDGE_LOOP ( 'NONE', ( #132 ) ) ;
#91 = FACE_OUTER_BOUND ( 'NONE', #110, .T. ) ;
#92 = FACE_OUTER_BOUND ( 'NONE', #70, .T. ) ;
#93 = CIRCLE ( 'NONE', #354, 6.000000000000000000 ) ;
#94 = FACE_OUTER_BOUND ( 'NONE', #123, .T. ) ;
#95 = FACE_BOUND ( 'NONE', #39, .T. ) ;
#96 = ORIENTED_EDGE ( 'NONE', *, *, #150, .F. ) ;
#97 = FACE_OUTER_BOUND ( 'NONE', #131, .T. ) ;
#98 = ORIENTED_EDGE ( 'NONE', *, *, #147, .T. ) ;
#99 = ORIENTED_EDGE ( 'NONE', *, *, #157, .F. ) ;
#100 = ORIENTED_EDGE ( 'NONE', *, *, #156, .T. ) ;
#101 = ORIENTED_EDGE ( 'NONE', *, *, #160, .T. ) ;
#102 = ORIENTED_EDGE ( 'NONE', *, *, #159, .T. ) ;
#103 = CYLINDRICAL_SURFACE ( 'NONE', #364, 5.750000000000001800 ) ;
#104 = CYLINDRICAL_SURFACE ( 'NONE', #355, 3.000000000000000900 ) ;
#105 = APPROVAL_PERSON_ORGANIZATION ( #1, #365, #202 ) ;
#106 = FACE_OUTER_BOUND ( 'NONE', #134, .T. ) ;
#107 = FACE_OUTER_BOUND ( 'NONE', #135, .T. ) ;
#108 = EDGE_LOOP ( 'NONE', ( #27 ) ) ;
#109 = EDGE_LOOP ( 'NONE', ( #136 ) ) ;
#110 = EDGE_LOOP ( 'NONE', ( #86 ) ) ;
#111 = EDGE_LOOP ( 'NONE', ( #96 ) ) ;
#112 = FACE_OUTER_BOUND ( 'NONE', #114, .T. ) ;
#113 = FACE_OUTER_BOUND ( 'NONE', #32, .T. ) ;
#114 = EDGE_LOOP ( 'NONE', ( #50 ) ) ;
#115 = EDGE_LOOP ( 'NONE', ( #84 ) ) ;
#116 = EDGE_LOOP ( 'NONE', ( #141 ) ) ;
#117 = FACE_BOUND ( 'NONE', #119, .T. ) ;
#118 = ORIENTED_EDGE ( 'NONE', *, *, #160, .F. ) ;
#119 = EDGE_LOOP ( 'NONE', ( #140 ) ) ;
#120 = CYLINDRICAL_SURFACE ( 'NONE', #329, 6.000000000000000000 ) ;
#121 = FACE_OUTER_BOUND ( 'NONE', #128, .T. ) ;
#122 = FACE_OUTER_BOUND ( 'NONE', #138, .T. ) ;
#123 = EDGE_LOOP ( 'NONE', ( #72 ) ) ;
#124 = CLOSED_SHELL ( 'NONE', ( #315, #316, #317, #311, #309, #308, #306, #313, #310, #312, #319, #307, #314, #318 ) ) ;
#125 = FACE_BOUND ( 'NONE', #129, .T. ) ;
#126 = FACE_OUTER_BOUND ( 'NONE', #116, .T. ) ;
#127 = FACE_BOUND ( 'NONE', #16, .T. ) ;
#128 = EDGE_LOOP ( 'NONE', ( #99 ) ) ;
#129 = EDGE_LOOP ( 'NONE', ( #88 ) ) ;
#130 = COORDINATED_UNIVERSAL_TIME_OFFSET ( 2, 0, .AHEAD. ) ;
#131 = EDGE_LOOP ( 'NONE', ( #82 ) ) ;
#132 = ORIENTED_EDGE ( 'NONE', *, *, #154, .F. ) ;
#133 = FACE_OUTER_BOUND ( 'NONE', #137, .T. ) ;
#134 = EDGE_LOOP ( 'NONE', ( #143 ) ) ;
#135 = EDGE_LOOP ( 'NONE', ( #3 ) ) ;
#136 = ORIENTED_EDGE ( 'NONE', *, *, #147, .F. ) ;
#137 = EDGE_LOOP ( 'NONE', ( #65 ) ) ;
#138 = EDGE_LOOP ( 'NONE', ( #83 ) ) ;
#139 = EDGE_LOOP ( 'NONE', ( #118 ) ) ;
#140 = ORIENTED_EDGE ( 'NONE', *, *, #151, .T. ) ;
#141 = ORIENTED_EDGE ( 'NONE', *, *, #153, .F. ) ;
#142 = ORIENTED_EDGE ( 'NONE', *, *, #148, .F. ) ;
#143 = ORIENTED_EDGE ( 'NONE', *, *, #158, .T. ) ;
#144 = EDGE_LOOP ( 'NONE', ( #98 ) ) ;
#145 = AXIS2_PLACEMENT_3D ( 'NONE', #290, #289, #261 ) ;
#146 = EDGE_CURVE ( 'NONE', #226, #226, #79, .T. ) ;
#147 = EDGE_CURVE ( 'NONE', #188, #188, #76, .T. ) ;
#148 = EDGE_CURVE ( 'NONE', #246, #246, #74, .T. ) ;
#149 = EDGE_CURVE ( 'NONE', #219, #219, #24, .T. ) ;
#150 = EDGE_CURVE ( 'NONE', #272, #272, #68, .T. ) ;
#151 = EDGE_CURVE ( 'NONE', #264, #264, #67, .T. ) ;
#152 = AXIS2_PLACEMENT_3D ( 'NONE', #280, #250, #270 ) ;
#153 = EDGE_CURVE ( 'NONE', #248, #248, #63, .T. ) ;
#154 = EDGE_CURVE ( 'NONE', #197, #197, #62, .T. ) ;
#155 = EDGE_CURVE ( 'NONE', #249, #249, #61, .T. ) ;
#156 = EDGE_CURVE ( 'NONE', #245, #245, #19, .T. ) ;
#157 = EDGE_CURVE ( 'NONE', #218, #218, #93, .T. ) ;
#158 = EDGE_CURVE ( 'NONE', #194, #194, #55, .T. ) ;
#159 = EDGE_CURVE ( 'NONE', #251, #251, #15, .T. ) ;
#160 = EDGE_CURVE ( 'NONE', #192, #192, #23, .T. ) ;
#161 = PERSON ( 'UNSPECIFIED', 'UNSPECIFIED', 'UNSPECIFIED', ('UNSPECIFIED'), ('UNSPECIFIED'), ('UNSPECIFIED') ) ;
#162 = DIRECTION ( 'NONE',  ( 0.0000000000000000000, 0.0000000000000000000, 1.000000000000000000 ) ) ;
#163 = CARTESIAN_POINT ( 'NONE',  ( -9.250000000000001800, 0.0000000000000000000, 0.0000000000000000000 ) ) ;
#164 = APPROVAL_ROLE ( '' ) ;
#165 = DIRECTION ( 'NONE',  ( -1.000000000000000000, -0.0000000000000000000, -0.0000000000000000000 ) ) ;
#166 = DATE_TIME_ROLE ( 'creation_date' ) ;
#167 = DIRECTION ( 'NONE',  ( 0.0000000000000000000, 0.0000000000000000000, -1.000000000000000000 ) ) ;
#168 = DIRECTION ( 'NONE',  ( 0.0000000000000000000, 0.0000000000000000000, 1.000000000000000000 ) ) ;
#169 = DIRECTION ( 'NONE',  ( 1.000000000000000000, 0.0000000000000000000, 0.0000000000000000000 ) ) ;
#170 = DIRECTION ( 'NONE',  ( 0.0000000000000000000, 0.0000000000000000000, 1.000000000000000000 ) ) ;
#171 = DIRECTION ( 'NONE',  ( -1.000000000000000000, -0.0000000000000000000, -0.0000000000000000000 ) ) ;
#172 = DIRECTION ( 'NONE',  ( -0.0000000000000000000, 0.0000000000000000000, 1.000000000000000000 ) ) ;
#173 = DIRECTION ( 'NONE',  ( -1.000000000000000000, 0.0000000000000000000, -0.0000000000000000000 ) ) ;
#174 = CARTESIAN_POINT ( 'NONE',  ( 9.250000000000008900, 0.0000000000000000000, 0.0000000000000000000 ) ) ;
#175 = CARTESIAN_POINT ( 'NONE',  ( 6.750000000000000000, 5.750000000000001800, 0.0000000000000000000 ) ) ;
#176 = DIRECTION ( 'NONE',  ( 0.0000000000000000000, 0.0000000000000000000, -1.000000000000000000 ) ) ;
#177 = DIRECTION ( 'NONE',  ( 1.000000000000000000, 0.0000000000000000000, 0.0000000000000000000 ) ) ;
#178 = PLANE ( 'NONE',  #327 ) ;
#179 = CARTESIAN_POINT ( 'NONE',  ( -70.83368873109185400, 0.0000000000000000000, 0.0000000000000000000 ) ) ;
#180 = CARTESIAN_POINT ( 'NONE',  ( -5.650000000000000400, 5.750000000000000000, 0.0000000000000000000 ) ) ;
#181 = CARTESIAN_POINT ( 'NONE',  ( -70.83368873109185400, 0.0000000000000000000, 0.0000000000000000000 ) ) ;
#182 = DIRECTION ( 'NONE',  ( -1.000000000000000000, -0.0000000000000000000, -0.0000000000000000000 ) ) ;
#183 = APPROVAL_STATUS ( 'not_yet_approved' ) ;
#184 = DIRECTION ( 'NONE',  ( -1.000000000000000000, -0.0000000000000000000, -0.0000000000000000000 ) ) ;
#185 = CARTESIAN_POINT ( 'NONE',  ( -70.83368873109185400, 0.0000000000000000000, 0.0000000000000000000 ) ) ;
#186 = DIRECTION ( 'NONE',  ( 0.0000000000000000000, 0.0000000000000000000, 1.000000000000000000 ) ) ;
#187 = DIRECTION ( 'NONE',  ( -1.000000000000000000, 0.0000000000000000000, -0.0000000000000000000 ) ) ;
#188 = VERTEX_POINT ( 'NONE', #242 ) ;
#189 = CARTESIAN_POINT ( 'NONE',  ( -70.83368873109185400, 0.0000000000000000000, 0.0000000000000000000 ) ) ;
#190 = CARTESIAN_POINT ( 'NONE',  ( 9.500000000000001800, 6.000000000000002700, 0.0000000000000000000 ) ) ;
#191 = APPROVAL_ROLE ( '' ) ;
#192 = VERTEX_POINT ( 'NONE', #303 ) ;
#193 = DIRECTION ( 'NONE',  ( -0.0000000000000000000, 0.0000000000000000000, 1.000000000000000000 ) ) ;
#194 = VERTEX_POINT ( 'NONE', #196 ) ;
#195 = DIRECTION ( 'NONE',  ( -1.000000000000000000, 0.0000000000000000000, -0.0000000000000000000 ) ) ;
#196 = CARTESIAN_POINT ( 'NONE',  ( -5.650000000000002100, 0.0000000000000000000, 5.750000000000000000 ) ) ;
#197 = VERTEX_POINT ( 'NONE', #255 ) ;
#198 = CARTESIAN_POINT ( 'NONE',  ( 9.250000000000008900, 0.0000000000000000000, 6.000000000000001800 ) ) ;
#199 = PLANE ( 'NONE',  #336 ) ;
#200 = DIRECTION ( 'NONE',  ( 0.0000000000000000000, 0.0000000000000000000, 1.000000000000000000 ) ) ;
#201 = DIRECTION ( 'NONE',  ( 0.0000000000000000000, 0.0000000000000000000, 1.000000000000000000 ) ) ;
#202 = APPROVAL_ROLE ( '' ) ;
#203 = DIRECTION ( 'NONE',  ( 0.0000000000000000000, 0.0000000000000000000, -1.000000000000000000 ) ) ;
#204 = DIRECTION ( 'NONE',  ( 1.000000000000000000, 0.0000000000000000000, 0.0000000000000000000 ) ) ;
#205 = DIRECTION ( 'NONE',  ( -1.000000000000000000, -0.0000000000000000000, -0.0000000000000000000 ) ) ;
#206 = PLANE ( 'NONE',  #356 ) ;
#207 = CARTESIAN_POINT ( 'NONE',  ( -9.500000000000001800, 3.000000000000000000, 0.0000000000000000000 ) ) ;
#208 = CARTESIAN_POINT ( 'NONE',  ( -70.83368873109185400, 0.0000000000000000000, 0.0000000000000000000 ) ) ;
#209 = DIRECTION ( 'NONE',  ( -1.000000000000000000, -0.0000000000000000000, -0.0000000000000000000 ) ) ;
#210 = DIRECTION ( 'NONE',  ( 0.0000000000000000000, 0.0000000000000000000, -1.000000000000000000 ) ) ;
#211 = DIRECTION ( 'NONE',  ( 1.000000000000000000, 0.0000000000000000000, 0.0000000000000000000 ) ) ;
#212 = DIRECTION ( 'NONE',  ( -1.000000000000000000, -0.0000000000000000000, -0.0000000000000000000 ) ) ;
#213 = DIRECTION ( 'NONE',  ( 0.0000000000000000000, 0.0000000000000000000, 1.000000000000000000 ) ) ;
#214 = PERSON_AND_ORGANIZATION_ROLE ( 'creator' ) ;
#215 = PLANE ( 'NONE',  #339 ) ;
#216 = DIRECTION ( 'NONE',  ( 0.0000000000000000000, 0.0000000000000000000, 1.000000000000000000 ) ) ;
#217 =( LENGTH_UNIT ( ) NAMED_UNIT ( * ) SI_UNIT ( .MILLI., .METRE. ) );
#218 = VERTEX_POINT ( 'NONE', #254 ) ;
#219 = VERTEX_POINT ( 'NONE', #279 ) ;
#220 = DIRECTION ( 'NONE',  ( 0.0000000000000000000, 0.0000000000000000000, 1.000000000000000000 ) ) ;
#221 = DIRECTION ( 'NONE',  ( -1.000000000000000000, -0.0000000000000000000, -0.0000000000000000000 ) ) ;
#222 = CARTESIAN_POINT ( 'NONE',  ( 5.649999999999998600, 6.000000000000001800, 0.0000000000000000000 ) ) ;
#223 = DIRECTION ( 'NONE',  ( 0.0000000000000000000, 0.0000000000000000000, 1.000000000000000000 ) ) ;
#224 = DIRECTION ( 'NONE',  ( -1.000000000000000000, -0.0000000000000000000, -0.0000000000000000000 ) ) ;
#225 = CARTESIAN_POINT ( 'NONE',  ( -9.500000000000001800, 0.0000000000000000000, 0.0000000000000000000 ) ) ;
#226 = VERTEX_POINT ( 'NONE', #231 ) ;
#227 = DIRECTION ( 'NONE',  ( 0.0000000000000000000, 0.0000000000000000000, 1.000000000000000000 ) ) ;
#228 = DIRECTION ( 'NONE',  ( -1.000000000000000000, -0.0000000000000000000, -0.0000000000000000000 ) ) ;
#229 = CARTESIAN_POINT ( 'NONE',  ( 5.650000000000002100, 0.0000000000000000000, 0.0000000000000000000 ) ) ;
#230 = CARTESIAN_POINT ( 'NONE',  ( 5.650000000000002100, 0.0000000000000000000, 6.000000000000001800 ) ) ;
#231 = CARTESIAN_POINT ( 'NONE',  ( -5.650000000000002100, 0.0000000000000000000, 6.000000000000000000 ) ) ;
#232 = DIRECTION ( 'NONE',  ( 0.0000000000000000000, 0.0000000000000000000, 1.000000000000000000 ) ) ;
#233 = CARTESIAN_POINT ( 'NONE',  ( -5.650000000000002100, 0.0000000000000000000, 0.0000000000000000000 ) ) ;
#234 = DIRECTION ( 'NONE',  ( 0.0000000000000000000, 0.0000000000000000000, 1.000000000000000000 ) ) ;
#235 = APPLICATION_PROTOCOL_DEFINITION ( 'international standard', 'config_control_design', 1994, #295 ) ;
#236 = DIRECTION ( 'NONE',  ( 1.000000000000000000, 0.0000000000000000000, 0.0000000000000000000 ) ) ;
#237 = CARTESIAN_POINT ( 'NONE',  ( -6.750000000000006200, 0.0000000000000000000, 0.0000000000000000000 ) ) ;
#238 = DIRECTION ( 'NONE',  ( 0.0000000000000000000, 0.0000000000000000000, -1.000000000000000000 ) ) ;
#239 = DIRECTION ( 'NONE',  ( 1.000000000000000000, 0.0000000000000000000, 0.0000000000000000000 ) ) ;
#240 = PLANE ( 'NONE',  #345 ) ;
#241 = CARTESIAN_POINT ( 'NONE',  ( 6.750000000000006200, 0.0000000000000000000, 0.0000000000000000000 ) ) ;
#242 = CARTESIAN_POINT ( 'NONE',  ( -9.500000000000001800, 0.0000000000000000000, 3.000000000000000000 ) ) ;
#243 = CARTESIAN_POINT ( 'NONE',  ( 5.650000000000002100, 0.0000000000000000000, 5.750000000000001800 ) ) ;
#244 =( NAMED_UNIT ( * ) SI_UNIT ( $, .STERADIAN. ) SOLID_ANGLE_UNIT ( ) );
#245 = VERTEX_POINT ( 'NONE', #300 ) ;
#246 = VERTEX_POINT ( 'NONE', #292 ) ;
#247 = DIRECTION ( 'NONE',  ( -1.000000000000000000, -0.0000000000000000000, -0.0000000000000000000 ) ) ;
#248 = VERTEX_POINT ( 'NONE', #198 ) ;
#249 = VERTEX_POINT ( 'NONE', #263 ) ;
#250 = DIRECTION ( 'NONE',  ( -1.000000000000000000, -0.0000000000000000000, -0.0000000000000000000 ) ) ;
#251 = VERTEX_POINT ( 'NONE', #243 ) ;
#252 = CARTESIAN_POINT ( 'NONE',  ( 9.500000000000001800, 0.0000000000000000000, 0.0000000000000000000 ) ) ;
#253 = CARTESIAN_POINT ( 'NONE',  ( -70.83368873109185400, 0.0000000000000000000, 0.0000000000000000000 ) ) ;
#254 = CARTESIAN_POINT ( 'NONE',  ( -6.750000000000006200, 0.0000000000000000000, 6.000000000000000000 ) ) ;
#255 = CARTESIAN_POINT ( 'NONE',  ( -9.250000000000001800, 0.0000000000000000000, -6.000000000000000000 ) ) ;
#256 = DIRECTION ( 'NONE',  ( -1.000000000000000000, -0.0000000000000000000, -0.0000000000000000000 ) ) ;
#257 = CARTESIAN_POINT ( 'NONE',  ( -6.750000000000006200, 0.0000000000000000000, 5.750000000000000000 ) ) ;
#258 = DIRECTION ( 'NONE',  ( 0.0000000000000000000, 0.0000000000000000000, -1.000000000000000000 ) ) ;
#259 = DIRECTION ( 'NONE',  ( 0.0000000000000000000, 0.0000000000000000000, 1.000000000000000000 ) ) ;
#260 = DIRECTION ( 'NONE',  ( -1.000000000000000000, -0.0000000000000000000, -0.0000000000000000000 ) ) ;
#261 = DIRECTION ( 'NONE',  ( 0.0000000000000000000, 0.0000000000000000000, 1.000000000000000000 ) ) ;
#262 = DIRECTION ( 'NONE',  ( 0.0000000000000000000, 0.0000000000000000000, 1.000000000000000000 ) ) ;
#263 = CARTESIAN_POINT ( 'NONE',  ( 9.500000000000001800, 0.0000000000000000000, 5.750000000000001800 ) ) ;
#264 = VERTEX_POINT ( 'NONE', #257 ) ;
#265 = DIRECTION ( 'NONE',  ( -1.000000000000000000, -0.0000000000000000000, -0.0000000000000000000 ) ) ;
#266 = DIRECTION ( 'NONE',  ( 0.0000000000000000000, 0.0000000000000000000, 1.000000000000000000 ) ) ;
#267 = DIRECTION ( 'NONE',  ( 0.0000000000000000000, 0.0000000000000000000, 1.000000000000000000 ) ) ;
#268 = APPLICATION_CONTEXT ( 'configuration controlled 3d designs of mechanical parts and assemblies' ) ;
#269 = CARTESIAN_POINT ( 'NONE',  ( -9.250000000000001800, 0.0000000000000000000, 0.0000000000000000000 ) ) ;
#270 = DIRECTION ( 'NONE',  ( 0.0000000000000000000, 0.0000000000000000000, 1.000000000000000000 ) ) ;
#271 = DIRECTION ( 'NONE',  ( -0.0000000000000000000, 0.0000000000000000000, 1.000000000000000000 ) ) ;
#272 = VERTEX_POINT ( 'NONE', #230 ) ;
#273 = APPROVAL_STATUS ( 'not_yet_approved' ) ;
#274 = DATE_TIME_ROLE ( 'classification_date' ) ;
#275 = DIRECTION ( 'NONE',  ( -1.000000000000000000, -0.0000000000000000000, -0.0000000000000000000 ) ) ;
#276 = CARTESIAN_POINT ( 'NONE',  ( 9.500000000000008900, 0.0000000000000000000, 0.0000000000000000000 ) ) ;
#277 = DIRECTION ( 'NONE',  ( -1.000000000000000000, -0.0000000000000000000, -0.0000000000000000000 ) ) ;
#278 = CARTESIAN_POINT ( 'NONE',  ( -6.750000000000006200, 0.0000000000000000000, 0.0000000000000000000 ) ) ;
#279 = CARTESIAN_POINT ( 'NONE',  ( 6.750000000000006200, 0.0000000000000000000, 5.750000000000001800 ) ) ;
#280 = CARTESIAN_POINT ( 'NONE',  ( -5.650000000000002100, 0.0000000000000000000, 0.0000000000000000000 ) ) ;
#281 = APPLICATION_PROTOCOL_DEFINITION ( 'international standard', 'config_control_design', 1994, #268 ) ;
#282 = PERSON_AND_ORGANIZATION_ROLE ( 'design_owner' ) ;
#283 = CARTESIAN_POINT ( 'NONE',  ( 5.650000000000002100, 0.0000000000000000000, 0.0000000000000000000 ) ) ;
#284 = CARTESIAN_POINT ( 'NONE',  ( 9.250000000000008900, 0.0000000000000000000, 0.0000000000000000000 ) ) ;
#285 = DIRECTION ( 'NONE',  ( -1.000000000000000000, -0.0000000000000000000, -0.0000000000000000000 ) ) ;
#286 = CARTESIAN_POINT ( 'NONE',  ( -6.750000000000001800, 6.000000000000000000, 0.0000000000000000000 ) ) ;
#287 =( NAMED_UNIT ( * ) PLANE_ANGLE_UNIT ( ) SI_UNIT ( $, .RADIAN. ) );
#288 = CARTESIAN_POINT ( 'NONE',  ( 6.750000000000006200, 0.0000000000000000000, 0.0000000000000000000 ) ) ;
#289 = DIRECTION ( 'NONE',  ( -1.000000000000000000, -0.0000000000000000000, -0.0000000000000000000 ) ) ;
#290 = CARTESIAN_POINT ( 'NONE',  ( -9.500000000000001800, 0.0000000000000000000, 0.0000000000000000000 ) ) ;
#291 = DIRECTION ( 'NONE',  ( 0.0000000000000000000, 0.0000000000000000000, 1.000000000000000000 ) ) ;
#292 = CARTESIAN_POINT ( 'NONE',  ( 9.500000000000008900, 0.0000000000000000000, 3.000000000000002200 ) ) ;
#293 = PLANE ( 'NONE',  #322 ) ;
#294 = PERSON_AND_ORGANIZATION_ROLE ( 'creator' ) ;
#295 = APPLICATION_CONTEXT ( 'configuration controlled 3d designs of mechanical parts and assemblies' ) ;
#296 = MECHANICAL_CONTEXT ( 'NONE', #268, 'mechanical' ) ;
#297 = APPROVAL_STATUS ( 'not_yet_approved' ) ;
#298 = PERSON_AND_ORGANIZATION_ROLE ( 'design_supplier' ) ;
#299 = DIRECTION ( 'NONE',  ( 1.000000000000000000, 0.0000000000000000000, 0.0000000000000000000 ) ) ;
#300 = CARTESIAN_POINT ( 'NONE',  ( 6.750000000000006200, 0.0000000000000000000, 6.000000000000001800 ) ) ;
#301 = SECURITY_CLASSIFICATION_LEVEL ( 'unclassified' ) ;
#302 = PERSON_AND_ORGANIZATION_ROLE ( 'classification_officer' ) ;
#303 = CARTESIAN_POINT ( 'NONE',  ( -9.500000000000001800, 0.0000000000000000000, -5.750000000000000000 ) ) ;
#304 = CARTESIAN_POINT ( 'NONE',  ( 0.0000000000000000000, 0.0000000000000000000, 0.0000000000000000000 ) ) ;
#305 = PRODUCT ( 'LM6UU', 'LM6UU', '', ( #296 ) ) ;
#306 = ADVANCED_FACE ( 'NONE', ( #71, #69 ), #103, .T. ) ;
#307 = ADVANCED_FACE ( 'NONE', ( #113, #66 ), #206, .F. ) ;
#308 = ADVANCED_FACE ( 'NONE', ( #81, #127 ), #215, .F. ) ;
#309 = ADVANCED_FACE ( 'NONE', ( #6, #77 ), #80, .T. ) ;
#310 = ADVANCED_FACE ( 'NONE', ( #97, #89 ), #20, .T. ) ;
#311 = ADVANCED_FACE ( 'NONE', ( #125, #94 ), #178, .F. ) ;
#312 = ADVANCED_FACE ( 'NONE', ( #91, #87 ), #199, .F. ) ;
#313 = ADVANCED_FACE ( 'NONE', ( #95, #92 ), #240, .F. ) ;
#314 = ADVANCED_FACE ( 'NONE', ( #112, #126 ), #64, .T. ) ;
#315 = ADVANCED_FACE ( 'NONE', ( #133, #107 ), #120, .T. ) ;
#316 = ADVANCED_FACE ( 'NONE', ( #121, #117 ), #293, .F. ) ;
#317 = ADVANCED_FACE ( 'NONE', ( #122, #106 ), #36, .T. ) ;
#318 = ADVANCED_FACE ( 'NONE', ( #26, #38 ), #37, .T. ) ;
#319 = ADVANCED_FACE ( 'NONE', ( #47, #5 ), #104, .F. ) ;
#320 = PRODUCT_DEFINITION_SHAPE ( 'NONE', 'NONE',  #324 ) ;
#321 = DESIGN_CONTEXT ( 'detailed design', #295, 'design' ) ;
#322 = AXIS2_PLACEMENT_3D ( 'NONE', #286, #187, #271 ) ;
#323 = CC_DESIGN_APPROVAL ( #331, ( #324 ) ) ;
#324 = PRODUCT_DEFINITION ( 'UNKNOWN', '', #337, #321 ) ;
#325 = AXIS2_PLACEMENT_3D ( 'NONE', #276, #277, #267 ) ;
#326 = AXIS2_PLACEMENT_3D ( 'NONE', #278, #260, #259 ) ;
#327 = AXIS2_PLACEMENT_3D ( 'NONE', #180, #177, #176 ) ;
#328 = SECURITY_CLASSIFICATION ( '', '', #301 ) ;
#329 = AXIS2_PLACEMENT_3D ( 'NONE', #253, #182, #170 ) ;
#330 = AXIS2_PLACEMENT_3D ( 'NONE', #181, #184, #186 ) ;
#331 = APPROVAL ( #183, 'UNSPECIFIED' ) ;
#332 = AXIS2_PLACEMENT_3D ( 'NONE', #189, #205, #200 ) ;
#333 = AXIS2_PLACEMENT_3D ( 'NONE', #283, #265, #266 ) ;
#334 = APPROVAL ( #273, 'UNSPECIFIED' ) ;
#335 = CC_DESIGN_PERSON_AND_ORGANIZATION_ASSIGNMENT ( #7, #298, ( #337 ) ) ;
#336 = AXIS2_PLACEMENT_3D ( 'NONE', #190, #173, #172 ) ;
#337 = PRODUCT_DEFINITION_FORMATION_WITH_SPECIFIED_SOURCE ( 'ANY', '', #305, .NOT_KNOWN. ) ;
#338 = CC_DESIGN_DATE_AND_TIME_ASSIGNMENT ( #18, #166, ( #324 ) ) ;
#339 = AXIS2_PLACEMENT_3D ( 'NONE', #222, #195, #193 ) ;
#340 = AXIS2_PLACEMENT_3D ( 'NONE', #284, #247, #168 ) ;
#341 = CC_DESIGN_PERSON_AND_ORGANIZATION_ASSIGNMENT ( #34, #214, ( #324 ) ) ;
#342 = CC_DESIGN_PERSON_AND_ORGANIZATION_ASSIGNMENT ( #51, #302, ( #328 ) ) ;
#343 = CC_DESIGN_APPROVAL ( #365, ( #337 ) ) ;
#344 = AXIS2_PLACEMENT_3D ( 'NONE', #233, #224, #223 ) ;
#345 = AXIS2_PLACEMENT_3D ( 'NONE', #175, #169, #167 ) ;
#346 = CC_DESIGN_PERSON_AND_ORGANIZATION_ASSIGNMENT ( #10, #282, ( #305 ) ) ;
#347 = AXIS2_PLACEMENT_3D ( 'NONE', #229, #221, #220 ) ;
#348 = AXIS2_PLACEMENT_3D ( 'NONE', #174, #171, #216 ) ;
#349 = AXIS2_PLACEMENT_3D ( 'NONE', #225, #212, #210 ) ;
#350 = AXIS2_PLACEMENT_3D ( 'NONE', #252, #236, #234 ) ;
#351 = AXIS2_PLACEMENT_3D ( 'NONE', #288, #275, #291 ) ;
#352 = AXIS2_PLACEMENT_3D ( 'NONE', #269, #239, #238 ) ;
#353 = AXIS2_PLACEMENT_3D ( 'NONE', #241, #256, #232 ) ;
#354 = AXIS2_PLACEMENT_3D ( 'NONE', #237, #228, #227 ) ;
#355 = AXIS2_PLACEMENT_3D ( 'NONE', #179, #285, #262 ) ;
#356 = AXIS2_PLACEMENT_3D ( 'NONE', #207, #204, #203 ) ;
#357 = CC_DESIGN_SECURITY_CLASSIFICATION ( #328, ( #337 ) ) ;
#358 = CC_DESIGN_PERSON_AND_ORGANIZATION_ASSIGNMENT ( #8, #294, ( #337 ) ) ;
#359 = AXIS2_PLACEMENT_3D ( 'NONE', #163, #211, #258 ) ;
#360 = CC_DESIGN_APPROVAL ( #334, ( #328 ) ) ;
#361 = PRODUCT_RELATED_PRODUCT_CATEGORY ( 'detail', '', ( #305 ) ) ;
#362 = AXIS2_PLACEMENT_3D ( 'NONE', #185, #165, #162 ) ;
#363 = CC_DESIGN_DATE_AND_TIME_ASSIGNMENT ( #59, #274, ( #328 ) ) ;
#364 = AXIS2_PLACEMENT_3D ( 'NONE', #208, #209, #213 ) ;
#365 = APPROVAL ( #297, 'UNSPECIFIED' ) ;
#366 = AXIS2_PLACEMENT_3D ( 'NONE', #304, #201, #299 ) ;
#367 = MANIFOLD_SOLID_BREP ( 'Fillet1', #124 ) ;
#368 = UNCERTAINTY_MEASURE_WITH_UNIT (LENGTH_MEASURE( 1.000000000000000100E-005 ), #217, 'distance_accuracy_value', 'NONE');
#369 = ADVANCED_BREP_SHAPE_REPRESENTATION ( 'LM6UU', ( #367, #366 ), #2 ) ;
ENDSEC;
END-ISO-10303-21;
