ISO-10303-21;
HEADER;
FILE_DESCRIPTION (( 'STEP AP203' ),
    '1' );
FILE_NAME ('KH-3050.STEP',
    '2014-08-08T09:17:23',
    ( 'Ovidiu Buiga' ),
    ( '' ),
    'SwSTEP 2.0',
    'SolidWorks 2010',
    '' );
FILE_SCHEMA (( 'CONFIG_CONTROL_DESIGN' ));
ENDSEC;

DATA;
#1 = EDGE_CURVE ( 'NONE', #83, #193, #240, .T. ) ;
#2 = EDGE_CURVE ( 'NONE', #105, #121, #296, .T. ) ;
#3 = EDGE_CURVE ( 'NONE', #202, #105, #298, .T. ) ;
#4 = EDGE_CURVE ( 'NONE', #83, #150, #302, .T. ) ;
#5 = AXIS2_PLACEMENT_3D ( 'NONE', #125, #144, #146 ) ;
#6 = AXIS2_PLACEMENT_3D ( 'NONE', #192, #190, #189 ) ;
#7 = AXIS2_PLACEMENT_3D ( 'NONE', #196, #195, #194 ) ;
#8 = AXIS2_PLACEMENT_3D ( 'NONE', #201, #156, #131 ) ;
#9 = AXIS2_PLACEMENT_3D ( 'NONE', #72, #200, #199 ) ;
#10 = EDGE_CURVE ( 'NONE', #202, #139, #299, .T. ) ;
#11 = EDGE_CURVE ( 'NONE', #96, #74, #327, .T. ) ;
#12 = EDGE_CURVE ( 'NONE', #74, #96, #278, .T. ) ;
#13 = AXIS2_PLACEMENT_3D ( 'NONE', #122, #126, #157 ) ;
#14 = AXIS2_PLACEMENT_3D ( 'NONE', #137, #155, #94 ) ;
#15 = EDGE_CURVE ( 'NONE', #193, #108, #249, .T. ) ;
#16 = EDGE_CURVE ( 'NONE', #129, #81, #284, .T. ) ;
#17 = EDGE_CURVE ( 'NONE', #139, #121, #288, .T. ) ;
#18 = EDGE_CURVE ( 'NONE', #96, #129, #223, .T. ) ;
#19 = EDGE_CURVE ( 'NONE', #81, #129, #287, .T. ) ;
#20 = EDGE_CURVE ( 'NONE', #74, #81, #224, .T. ) ;
#21 = EDGE_CURVE ( 'NONE', #193, #129, #286, .T. ) ;
#22 = EDGE_CURVE ( 'NONE', #121, #105, #290, .T. ) ;
#23 = EDGE_CURVE ( 'NONE', #108, #81, #285, .T. ) ;
#24 = EDGE_CURVE ( 'NONE', #108, #193, #289, .T. ) ;
#25 = AXIS2_PLACEMENT_3D ( 'NONE', #134, #84, #89 ) ;
#26 = EDGE_CURVE ( 'NONE', #150, #108, #243, .T. ) ;
#27 = AXIS2_PLACEMENT_3D ( 'NONE', #174, #180, #127 ) ;
#28 = EDGE_CURVE ( 'NONE', #139, #202, #293, .T. ) ;
#29 = AXIS2_PLACEMENT_3D ( 'NONE', #86, #132, #119 ) ;
#30 = EDGE_CURVE ( 'NONE', #150, #83, #235, .T. ) ;
#31 = CC_DESIGN_PERSON_AND_ORGANIZATION_ASSIGNMENT ( #281, #102, ( #33 ) ) ;
#32 = AXIS2_PLACEMENT_3D ( 'NONE', #115, #120, #111 ) ;
#33 = SECURITY_CLASSIFICATION ( '', '', #67 ) ;
#34 = AXIS2_PLACEMENT_3D ( 'NONE', #183, #173, #172 ) ;
#35 = AXIS2_PLACEMENT_3D ( 'NONE', #91, #104, #88 ) ;
#36 = AXIS2_PLACEMENT_3D ( 'NONE', #171, #169, #167 ) ;
#37 = CC_DESIGN_PERSON_AND_ORGANIZATION_ASSIGNMENT ( #246, #93, ( #64 ) ) ;
#38 = AXIS2_PLACEMENT_3D ( 'NONE', #145, #128, #124 ) ;
#39 = CC_DESIGN_PERSON_AND_ORGANIZATION_ASSIGNMENT ( #250, #68, ( #64 ) ) ;
#40 = APPROVAL ( #69, 'UNSPECIFIED' ) ;
#41 = AXIS2_PLACEMENT_3D ( 'NONE', #117, #118, #123 ) ;
#42 = AXIS2_PLACEMENT_3D ( 'NONE', #185, #182, #181 ) ;
#43 = CC_DESIGN_SECURITY_CLASSIFICATION ( #33, ( #64 ) ) ;
#44 = CC_DESIGN_APPROVAL ( #40, ( #64 ) ) ;
#45 = PRODUCT_RELATED_PRODUCT_CATEGORY ( 'detail', '', ( #204 ) ) ;
#46 = CC_DESIGN_PERSON_AND_ORGANIZATION_ASSIGNMENT ( #332, #71, ( #53 ) ) ;
#47 = CC_DESIGN_APPROVAL ( #65, ( #53 ) ) ;
#48 = APPROVAL ( #99, 'UNSPECIFIED' ) ;
#49 = CC_DESIGN_DATE_AND_TIME_ASSIGNMENT ( #222, #70, ( #53 ) ) ;
#50 = AXIS2_PLACEMENT_3D ( 'NONE', #97, #98, #110 ) ;
#51 = CC_DESIGN_PERSON_AND_ORGANIZATION_ASSIGNMENT ( #269, #78, ( #204 ) ) ;
#52 = CC_DESIGN_APPROVAL ( #48, ( #33 ) ) ;
#53 = PRODUCT_DEFINITION ( 'UNKNOWN', '', #64, #340 ) ;
#54 = CC_DESIGN_DATE_AND_TIME_ASSIGNMENT ( #248, #66, ( #33 ) ) ;
#55 = AXIS2_PLACEMENT_3D ( 'NONE', #116, #112, #107 ) ;
#56 = AXIS2_PLACEMENT_3D ( 'NONE', #106, #114, #109 ) ;
#57 = AXIS2_PLACEMENT_3D ( 'NONE', #188, #177, #176 ) ;
#58 = AXIS2_PLACEMENT_3D ( 'NONE', #82, #95, #101 ) ;
#59 = AXIS2_PLACEMENT_3D ( 'NONE', #147, #148, #142 ) ;
#60 = AXIS2_PLACEMENT_3D ( 'NONE', #140, #135, #133 ) ;
#61 = AXIS2_PLACEMENT_3D ( 'NONE', #149, #138, #136 ) ;
#62 = AXIS2_PLACEMENT_3D ( 'NONE', #175, #164, #163 ) ;
#63 = AXIS2_PLACEMENT_3D ( 'NONE', #198, #187, #186 ) ;
#64 = PRODUCT_DEFINITION_FORMATION_WITH_SPECIFIED_SOURCE ( 'ANY', '', #204, .NOT_KNOWN. ) ;
#65 = APPROVAL ( #75, 'UNSPECIFIED' ) ;
#66 = DATE_TIME_ROLE ( 'classification_date' ) ;
#67 = SECURITY_CLASSIFICATION_LEVEL ( 'unclassified' ) ;
#68 = PERSON_AND_ORGANIZATION_ROLE ( 'creator' ) ;
#69 = APPROVAL_STATUS ( 'not_yet_approved' ) ;
#70 = DATE_TIME_ROLE ( 'creation_date' ) ;
#71 = PERSON_AND_ORGANIZATION_ROLE ( 'creator' ) ;
#72 = CARTESIAN_POINT ( 'NONE',  ( -24.80000000000000400, 0.0000000000000000000, 0.0000000000000000000 ) ) ;
#73 = APPROVAL_ROLE ( '' ) ;
#74 = VERTEX_POINT ( 'NONE', #166 ) ;
#75 = APPROVAL_STATUS ( 'not_yet_approved' ) ;
#76 = APPLICATION_PROTOCOL_DEFINITION ( 'international standard', 'config_control_design', 1994, #77 ) ;
#77 = APPLICATION_CONTEXT ( 'configuration controlled 3d designs of mechanical parts and assemblies' ) ;
#78 = PERSON_AND_ORGANIZATION_ROLE ( 'design_owner' ) ;
#79 = APPLICATION_PROTOCOL_DEFINITION ( 'international standard', 'config_control_design', 1994, #80 ) ;
#80 = APPLICATION_CONTEXT ( 'configuration controlled 3d designs of mechanical parts and assemblies' ) ;
#81 = VERTEX_POINT ( 'NONE', #165 ) ;
#82 = CARTESIAN_POINT ( 'NONE',  ( 0.0000000000000000000, 0.0000000000000000000, 0.0000000000000000000 ) ) ;
#83 = VERTEX_POINT ( 'NONE', #162 ) ;
#84 = DIRECTION ( 'NONE',  ( -1.000000000000000000, -0.0000000000000000000, -0.0000000000000000000 ) ) ;
#85 =( NAMED_UNIT ( * ) SI_UNIT ( $, .STERADIAN. ) SOLID_ANGLE_UNIT ( ) );
#86 = CARTESIAN_POINT ( 'NONE',  ( 24.99999999999999600, 0.0000000000000000000, 0.0000000000000000000 ) ) ;
#87 =( NAMED_UNIT ( * ) PLANE_ANGLE_UNIT ( ) SI_UNIT ( $, .RADIAN. ) );
#88 = DIRECTION ( 'NONE',  ( 0.0000000000000000000, 0.0000000000000000000, -1.000000000000000000 ) ) ;
#89 = DIRECTION ( 'NONE',  ( 0.0000000000000000000, 0.0000000000000000000, -1.000000000000000000 ) ) ;
#90 =( LENGTH_UNIT ( ) NAMED_UNIT ( * ) SI_UNIT ( .MILLI., .METRE. ) );
#91 = CARTESIAN_POINT ( 'NONE',  ( -24.80000000000000400, 0.0000000000000000000, 0.0000000000000000000 ) ) ;
#92 = APPROVAL_ROLE ( '' ) ;
#93 = PERSON_AND_ORGANIZATION_ROLE ( 'design_supplier' ) ;
#94 = DIRECTION ( 'NONE',  ( 0.0000000000000000000, 0.0000000000000000000, -1.000000000000000000 ) ) ;
#95 = DIRECTION ( 'NONE',  ( 0.0000000000000000000, 0.0000000000000000000, 1.000000000000000000 ) ) ;
#96 = VERTEX_POINT ( 'NONE', #161 ) ;
#97 = CARTESIAN_POINT ( 'NONE',  ( -68.33153641321104000, 0.0000000000000000000, 0.0000000000000000000 ) ) ;
#98 = DIRECTION ( 'NONE',  ( -1.000000000000000000, -0.0000000000000000000, -0.0000000000000000000 ) ) ;
#99 = APPROVAL_STATUS ( 'not_yet_approved' ) ;
#100 = MECHANICAL_CONTEXT ( 'NONE', #80, 'mechanical' ) ;
#101 = DIRECTION ( 'NONE',  ( 1.000000000000000000, 0.0000000000000000000, 0.0000000000000000000 ) ) ;
#102 = PERSON_AND_ORGANIZATION_ROLE ( 'classification_officer' ) ;
#103 = APPROVAL_ROLE ( '' ) ;
#104 = DIRECTION ( 'NONE',  ( 1.000000000000000000, 0.0000000000000000000, 0.0000000000000000000 ) ) ;
#105 = VERTEX_POINT ( 'NONE', #160 ) ;
#106 = CARTESIAN_POINT ( 'NONE',  ( -68.33153641321104000, 0.0000000000000000000, 0.0000000000000000000 ) ) ;
#107 = DIRECTION ( 'NONE',  ( 0.0000000000000000000, 0.0000000000000000000, -1.000000000000000000 ) ) ;
#108 = VERTEX_POINT ( 'NONE', #159 ) ;
#109 = DIRECTION ( 'NONE',  ( 0.0000000000000000000, 0.0000000000000000000, 1.000000000000000000 ) ) ;
#110 = DIRECTION ( 'NONE',  ( 0.0000000000000000000, 0.0000000000000000000, 1.000000000000000000 ) ) ;
#111 = DIRECTION ( 'NONE',  ( 0.0000000000000000000, 0.0000000000000000000, 1.000000000000000000 ) ) ;
#112 = DIRECTION ( 'NONE',  ( 1.000000000000000000, 0.0000000000000000000, 0.0000000000000000000 ) ) ;
#113 = DIRECTION ( 'NONE',  ( -1.000000000000000000, -0.0000000000000000000, -0.0000000000000000000 ) ) ;
#114 = DIRECTION ( 'NONE',  ( -1.000000000000000000, -0.0000000000000000000, -0.0000000000000000000 ) ) ;
#115 = CARTESIAN_POINT ( 'NONE',  ( 24.80000000000000400, 0.0000000000000000000, 0.0000000000000000000 ) ) ;
#116 = CARTESIAN_POINT ( 'NONE',  ( -24.80000000000000400, 0.0000000000000000000, 0.0000000000000000000 ) ) ;
#117 = CARTESIAN_POINT ( 'NONE',  ( -68.33153641321104000, 0.0000000000000000000, 0.0000000000000000000 ) ) ;
#118 = DIRECTION ( 'NONE',  ( -1.000000000000000000, -0.0000000000000000000, -0.0000000000000000000 ) ) ;
#119 = DIRECTION ( 'NONE',  ( 0.0000000000000000000, 0.0000000000000000000, 1.000000000000000000 ) ) ;
#120 = DIRECTION ( 'NONE',  ( -1.000000000000000000, -0.0000000000000000000, -0.0000000000000000000 ) ) ;
#121 = VERTEX_POINT ( 'NONE', #170 ) ;
#122 = CARTESIAN_POINT ( 'NONE',  ( -25.00000000000000700, 0.0000000000000000000, 0.0000000000000000000 ) ) ;
#123 = DIRECTION ( 'NONE',  ( 0.0000000000000000000, 0.0000000000000000000, 1.000000000000000000 ) ) ;
#124 = DIRECTION ( 'NONE',  ( -0.0000000000000000000, 0.0000000000000000000, 1.000000000000000000 ) ) ;
#125 = CARTESIAN_POINT ( 'NONE',  ( 24.99999999999999300, 0.0000000000000000000, 0.0000000000000000000 ) ) ;
#126 = DIRECTION ( 'NONE',  ( -1.000000000000000000, -0.0000000000000000000, -0.0000000000000000000 ) ) ;
#127 = DIRECTION ( 'NONE',  ( 0.0000000000000000000, 0.0000000000000000000, 1.000000000000000000 ) ) ;
#128 = DIRECTION ( 'NONE',  ( -1.000000000000000000, 0.0000000000000000000, -0.0000000000000000000 ) ) ;
#129 = VERTEX_POINT ( 'NONE', #158 ) ;
#130 = CARTESIAN_POINT ( 'NONE',  ( -68.33153641321104000, 1.836970198721030000E-015, -15.00000000000000400 ) ) ;
#131 = DIRECTION ( 'NONE',  ( 0.0000000000000000000, -1.224646799147353900E-016, 1.000000000000000000 ) ) ;
#132 = DIRECTION ( 'NONE',  ( 1.000000000000000000, 0.0000000000000000000, 0.0000000000000000000 ) ) ;
#133 = DIRECTION ( 'NONE',  ( 0.0000000000000000000, 0.0000000000000000000, 1.000000000000000000 ) ) ;
#134 = CARTESIAN_POINT ( 'NONE',  ( -25.00000000000000400, 0.0000000000000000000, 0.0000000000000000000 ) ) ;
#135 = DIRECTION ( 'NONE',  ( -1.000000000000000000, -0.0000000000000000000, -0.0000000000000000000 ) ) ;
#136 = DIRECTION ( 'NONE',  ( 0.0000000000000000000, 0.0000000000000000000, -1.000000000000000000 ) ) ;
#137 = CARTESIAN_POINT ( 'NONE',  ( -25.00000000000000400, 0.0000000000000000000, 0.0000000000000000000 ) ) ;
#138 = DIRECTION ( 'NONE',  ( 1.000000000000000000, 0.0000000000000000000, 0.0000000000000000000 ) ) ;
#139 = VERTEX_POINT ( 'NONE', #154 ) ;
#140 = CARTESIAN_POINT ( 'NONE',  ( -68.33153641321104000, 0.0000000000000000000, 0.0000000000000000000 ) ) ;
#141 = PLANE ( 'NONE',  #61 ) ;
#142 = DIRECTION ( 'NONE',  ( 0.0000000000000000000, 0.0000000000000000000, 1.000000000000000000 ) ) ;
#143 = PLANE ( 'NONE',  #38 ) ;
#144 = DIRECTION ( 'NONE',  ( -1.000000000000000000, -0.0000000000000000000, -0.0000000000000000000 ) ) ;
#145 = CARTESIAN_POINT ( 'NONE',  ( 24.99999999999999600, 20.00000000000000700, 0.0000000000000000000 ) ) ;
#146 = DIRECTION ( 'NONE',  ( 0.0000000000000000000, 0.0000000000000000000, 1.000000000000000000 ) ) ;
#147 = CARTESIAN_POINT ( 'NONE',  ( 24.80000000000000400, 0.0000000000000000000, 0.0000000000000000000 ) ) ;
#148 = DIRECTION ( 'NONE',  ( -1.000000000000000000, -0.0000000000000000000, -0.0000000000000000000 ) ) ;
#149 = CARTESIAN_POINT ( 'NONE',  ( -25.00000000000000400, 15.00000000000000000, 0.0000000000000000000 ) ) ;
#150 = VERTEX_POINT ( 'NONE', #153 ) ;
#151 = CARTESIAN_POINT ( 'NONE',  ( 24.99999999999999300, 1.836970198721030400E-015, -15.00000000000000700 ) ) ;
#152 = CARTESIAN_POINT ( 'NONE',  ( 24.80000000000000400, 2.449293598294706900E-015, -20.00000000000000400 ) ) ;
#153 = CARTESIAN_POINT ( 'NONE',  ( 24.99999999999999600, 0.0000000000000000000, 19.80000000000000400 ) ) ;
#154 = CARTESIAN_POINT ( 'NONE',  ( 24.99999999999999300, 0.0000000000000000000, 15.00000000000000700 ) ) ;
#155 = DIRECTION ( 'NONE',  ( -1.000000000000000000, -0.0000000000000000000, -0.0000000000000000000 ) ) ;
#156 = DIRECTION ( 'NONE',  ( -0.0000000000000000000, 1.000000000000000000, 1.224646799147353200E-016 ) ) ;
#157 = DIRECTION ( 'NONE',  ( 0.0000000000000000000, 0.0000000000000000000, 1.000000000000000000 ) ) ;
#158 = CARTESIAN_POINT ( 'NONE',  ( -24.80000000000000400, 2.449293598294706900E-015, -20.00000000000000400 ) ) ;
#159 = CARTESIAN_POINT ( 'NONE',  ( 24.80000000000000400, 0.0000000000000000000, 20.00000000000000400 ) ) ;
#160 = CARTESIAN_POINT ( 'NONE',  ( -25.00000000000000700, 1.836970198721029600E-015, -15.00000000000000000 ) ) ;
#161 = CARTESIAN_POINT ( 'NONE',  ( -25.00000000000000400, 0.0000000000000000000, -19.80000000000000400 ) ) ;
#162 = CARTESIAN_POINT ( 'NONE',  ( 24.99999999999999600, 2.437047130303233600E-015, -19.80000000000000400 ) ) ;
#163 = DIRECTION ( 'NONE',  ( 0.0000000000000000000, 0.0000000000000000000, 1.000000000000000000 ) ) ;
#164 = DIRECTION ( 'NONE',  ( 1.000000000000000000, 0.0000000000000000000, 0.0000000000000000000 ) ) ;
#165 = CARTESIAN_POINT ( 'NONE',  ( -24.80000000000000400, 0.0000000000000000000, 20.00000000000000400 ) ) ;
#166 = CARTESIAN_POINT ( 'NONE',  ( -25.00000000000000400, 2.437047130303233600E-015, 19.80000000000000400 ) ) ;
#167 = DIRECTION ( 'NONE',  ( 0.0000000000000000000, 0.0000000000000000000, 1.000000000000000000 ) ) ;
#168 = CARTESIAN_POINT ( 'NONE',  ( -68.33153641321104000, 0.0000000000000000000, 15.00000000000000400 ) ) ;
#169 = DIRECTION ( 'NONE',  ( -1.000000000000000000, -0.0000000000000000000, -0.0000000000000000000 ) ) ;
#170 = CARTESIAN_POINT ( 'NONE',  ( -25.00000000000000700, 0.0000000000000000000, 15.00000000000000000 ) ) ;
#171 = CARTESIAN_POINT ( 'NONE',  ( 24.99999999999999300, 0.0000000000000000000, 0.0000000000000000000 ) ) ;
#172 = DIRECTION ( 'NONE',  ( 0.0000000000000000000, 0.0000000000000000000, -1.000000000000000000 ) ) ;
#173 = DIRECTION ( 'NONE',  ( 0.0000000000000000000, -1.000000000000000000, 0.0000000000000000000 ) ) ;
#174 = CARTESIAN_POINT ( 'NONE',  ( 24.80000000000000400, 0.0000000000000000000, 0.0000000000000000000 ) ) ;
#175 = CARTESIAN_POINT ( 'NONE',  ( 24.99999999999999600, 0.0000000000000000000, 0.0000000000000000000 ) ) ;
#176 = DIRECTION ( 'NONE',  ( 0.0000000000000000000, 0.0000000000000000000, 1.000000000000000000 ) ) ;
#177 = DIRECTION ( 'NONE',  ( -1.000000000000000000, -0.0000000000000000000, -0.0000000000000000000 ) ) ;
#178 = DIRECTION ( 'NONE',  ( -1.000000000000000000, -0.0000000000000000000, -0.0000000000000000000 ) ) ;
#179 = CARTESIAN_POINT ( 'NONE',  ( -68.33153641321104000, 0.0000000000000000000, 20.00000000000000400 ) ) ;
#180 = DIRECTION ( 'NONE',  ( -1.000000000000000000, -0.0000000000000000000, -0.0000000000000000000 ) ) ;
#181 = DIRECTION ( 'NONE',  ( 0.0000000000000000000, 0.0000000000000000000, 1.000000000000000000 ) ) ;
#182 = DIRECTION ( 'NONE',  ( -1.000000000000000000, -0.0000000000000000000, -0.0000000000000000000 ) ) ;
#183 = CARTESIAN_POINT ( 'NONE',  ( 24.80000000000000400, 0.0000000000000000000, 19.80000000000000400 ) ) ;
#184 = DIRECTION ( 'NONE',  ( -1.000000000000000000, -0.0000000000000000000, -0.0000000000000000000 ) ) ;
#185 = CARTESIAN_POINT ( 'NONE',  ( -25.00000000000000700, 0.0000000000000000000, 0.0000000000000000000 ) ) ;
#186 = DIRECTION ( 'NONE',  ( 0.0000000000000000000, 1.224646799147353900E-016, 1.000000000000000000 ) ) ;
#187 = DIRECTION ( 'NONE',  ( 0.0000000000000000000, 1.000000000000000000, -1.224646799147353200E-016 ) ) ;
#188 = CARTESIAN_POINT ( 'NONE',  ( 24.80000000000000400, 0.0000000000000000000, 0.0000000000000000000 ) ) ;
#189 = DIRECTION ( 'NONE',  ( 0.0000000000000000000, 0.0000000000000000000, -1.000000000000000000 ) ) ;
#190 = DIRECTION ( 'NONE',  ( 1.000000000000000000, 0.0000000000000000000, 0.0000000000000000000 ) ) ;
#191 = CARTESIAN_POINT ( 'NONE',  ( -68.33153641321104000, 2.449293598294706900E-015, -20.00000000000000400 ) ) ;
#192 = CARTESIAN_POINT ( 'NONE',  ( -24.80000000000000400, 0.0000000000000000000, 0.0000000000000000000 ) ) ;
#193 = VERTEX_POINT ( 'NONE', #152 ) ;
#194 = DIRECTION ( 'NONE',  ( 0.0000000000000000000, 0.0000000000000000000, -1.000000000000000000 ) ) ;
#195 = DIRECTION ( 'NONE',  ( 0.0000000000000000000, -1.000000000000000000, 0.0000000000000000000 ) ) ;
#196 = CARTESIAN_POINT ( 'NONE',  ( -24.80000000000000400, 0.0000000000000000000, -19.80000000000000400 ) ) ;
#197 = DIRECTION ( 'NONE',  ( -1.000000000000000000, -0.0000000000000000000, -0.0000000000000000000 ) ) ;
#198 = CARTESIAN_POINT ( 'NONE',  ( -24.80000000000000400, 2.424800662311759800E-015, 19.80000000000000400 ) ) ;
#199 = DIRECTION ( 'NONE',  ( 0.0000000000000000000, 0.0000000000000000000, -1.000000000000000000 ) ) ;
#200 = DIRECTION ( 'NONE',  ( 1.000000000000000000, 0.0000000000000000000, 0.0000000000000000000 ) ) ;
#201 = CARTESIAN_POINT ( 'NONE',  ( 24.80000000000000400, 2.424800662311759800E-015, -19.80000000000000400 ) ) ;
#202 = VERTEX_POINT ( 'NONE', #151 ) ;
#203 = PERSON ( 'UNSPECIFIED', 'UNSPECIFIED', 'UNSPECIFIED', ('UNSPECIFIED'), ('UNSPECIFIED'), ('UNSPECIFIED') ) ;
#204 = PRODUCT ( 'KH-3050', 'KH-3050', '', ( #100 ) ) ;
#205 = VECTOR ( 'NONE', #113, 1000.000000000000000 ) ;
#206 = ORIENTED_EDGE ( 'NONE', *, *, #17, .T. ) ;
#207 = ORIENTED_EDGE ( 'NONE', *, *, #19, .T. ) ;
#208 = CLOSED_SHELL ( 'NONE', ( #344, #353, #348, #347, #351, #346, #352, #345, #350, #349 ) ) ;
#209 = APPROVAL_DATE_TIME ( #210, #48 ) ;
#210 = DATE_AND_TIME ( #211, #213 ) ;
#211 = CALENDAR_DATE ( 2014, 8, 8 ) ;
#212 = ORIENTED_EDGE ( 'NONE', *, *, #16, .F. ) ;
#213 = LOCAL_TIME ( 12, 17, 23.00000000000000000, #217 ) ;
#214 = PERSON_AND_ORGANIZATION ( #203, #262 ) ;
#215 = ORIENTED_EDGE ( 'NONE', *, *, #19, .F. ) ;
#216 = EDGE_LOOP ( 'NONE', ( #229, #323, #338, #336 ) ) ;
#217 = COORDINATED_UNIVERSAL_TIME_OFFSET ( 2, 0, .AHEAD. ) ;
#218 = APPROVAL_PERSON_ORGANIZATION ( #214, #48, #103 ) ;
#219 = FACE_OUTER_BOUND ( 'NONE', #216, .T. ) ;
#220 = FACE_BOUND ( 'NONE', #322, .T. ) ;
#221 = TOROIDAL_SURFACE ( 'NONE', #32, 19.80000000000000400, 0.2000000000000000100 ) ;
#222 = DATE_AND_TIME ( #329, #330 ) ;
#223 = CIRCLE ( 'NONE', #7, 0.1999999999999987900 ) ;
#224 = CIRCLE ( 'NONE', #63, 0.1999999999999987900 ) ;
#225 = CALENDAR_DATE ( 2014, 8, 8 ) ;
#226 = ORIENTED_EDGE ( 'NONE', *, *, #18, .F. ) ;
#227 = EDGE_LOOP ( 'NONE', ( #321, #303, #328, #305 ) ) ;
#228 = EDGE_LOOP ( 'NONE', ( #335, #308, #206, #326 ) ) ;
#229 = ORIENTED_EDGE ( 'NONE', *, *, #1, .F. ) ;
#230 = TOROIDAL_SURFACE ( 'NONE', #55, 19.80000000000000400, 0.2000000000000000100 ) ;
#231 = FACE_OUTER_BOUND ( 'NONE', #315, .T. ) ;
#232 = FACE_OUTER_BOUND ( 'NONE', #325, .T. ) ;
#233 = ORIENTED_EDGE ( 'NONE', *, *, #15, .T. ) ;
#234 = EDGE_LOOP ( 'NONE', ( #320, #259 ) ) ;
#235 = CIRCLE ( 'NONE', #62, 19.80000000000000400 ) ;
#236 = CYLINDRICAL_SURFACE ( 'NONE', #50, 15.00000000000000400 ) ;
#237 = COORDINATED_UNIVERSAL_TIME_OFFSET ( 2, 0, .AHEAD. ) ;
#238 = CYLINDRICAL_SURFACE ( 'NONE', #41, 15.00000000000000400 ) ;
#239 = APPROVAL_PERSON_ORGANIZATION ( #241, #40, #92 ) ;
#240 = CIRCLE ( 'NONE', #8, 0.1999999999999987900 ) ;
#241 = PERSON_AND_ORGANIZATION ( #203, #262 ) ;
#242 = DATE_AND_TIME ( #244, #245 ) ;
#243 = CIRCLE ( 'NONE', #34, 0.1999999999999987900 ) ;
#244 = CALENDAR_DATE ( 2014, 8, 8 ) ;
#245 = LOCAL_TIME ( 12, 17, 23.00000000000000000, #237 ) ;
#246 = PERSON_AND_ORGANIZATION ( #203, #262 ) ;
#247 = ORIENTED_EDGE ( 'NONE', *, *, #23, .F. ) ;
#248 = DATE_AND_TIME ( #225, #252 ) ;
#249 = CIRCLE ( 'NONE', #27, 20.00000000000000400 ) ;
#250 = PERSON_AND_ORGANIZATION ( #203, #262 ) ;
#251 = ORIENTED_EDGE ( 'NONE', *, *, #23, .T. ) ;
#252 = LOCAL_TIME ( 12, 17, 23.00000000000000000, #282 ) ;
#253 = APPROVAL_DATE_TIME ( #242, #40 ) ;
#254 = EDGE_LOOP ( 'NONE', ( #294, #291, #212, #226 ) ) ;
#255 = TOROIDAL_SURFACE ( 'NONE', #59, 19.80000000000000400, 0.2000000000000000100 ) ;
#256 = FACE_OUTER_BOUND ( 'NONE', #227, .T. ) ;
#257 = FACE_OUTER_BOUND ( 'NONE', #228, .T. ) ;
#258 = ORIENTED_EDGE ( 'NONE', *, *, #22, .F. ) ;
#259 = ORIENTED_EDGE ( 'NONE', *, *, #4, .T. ) ;
#260 = CYLINDRICAL_SURFACE ( 'NONE', #56, 20.00000000000000400 ) ;
#261 = TOROIDAL_SURFACE ( 'NONE', #35, 19.80000000000000400, 0.2000000000000000100 ) ;
#262 = ORGANIZATION ( 'UNSPECIFIED', 'UNSPECIFIED', '' ) ;
#263 = ORIENTED_EDGE ( 'NONE', *, *, #26, .F. ) ;
#264 = SHAPE_DEFINITION_REPRESENTATION ( #339, #343 ) ;
#265 =( GEOMETRIC_REPRESENTATION_CONTEXT ( 3 ) GLOBAL_UNCERTAINTY_ASSIGNED_CONTEXT ( ( #341 ) ) GLOBAL_UNIT_ASSIGNED_CONTEXT ( ( #90, #87, #85 ) ) REPRESENTATION_CONTEXT ( 'NONE', 'WORKASPACE' ) );
#266 = APPROVAL_PERSON_ORGANIZATION ( #268, #65, #73 ) ;
#267 = VECTOR ( 'NONE', #178, 1000.000000000000000 ) ;
#268 = PERSON_AND_ORGANIZATION ( #203, #262 ) ;
#269 = PERSON_AND_ORGANIZATION ( #203, #262 ) ;
#270 = ORIENTED_EDGE ( 'NONE', *, *, #1, .T. ) ;
#271 = CALENDAR_DATE ( 2014, 8, 8 ) ;
#272 = LOCAL_TIME ( 12, 17, 23.00000000000000000, #274 ) ;
#273 = ORIENTED_EDGE ( 'NONE', *, *, #21, .F. ) ;
#274 = COORDINATED_UNIVERSAL_TIME_OFFSET ( 2, 0, .AHEAD. ) ;
#275 = ORIENTED_EDGE ( 'NONE', *, *, #10, .T. ) ;
#276 = VECTOR ( 'NONE', #197, 1000.000000000000000 ) ;
#277 = FACE_OUTER_BOUND ( 'NONE', #300, .T. ) ;
#278 = CIRCLE ( 'NONE', #25, 19.80000000000000400 ) ;
#279 = ORIENTED_EDGE ( 'NONE', *, *, #20, .F. ) ;
#280 = ORIENTED_EDGE ( 'NONE', *, *, #24, .T. ) ;
#281 = PERSON_AND_ORGANIZATION ( #203, #262 ) ;
#282 = COORDINATED_UNIVERSAL_TIME_OFFSET ( 2, 0, .AHEAD. ) ;
#283 = EDGE_LOOP ( 'NONE', ( #279, #313, #318, #215 ) ) ;
#284 = CIRCLE ( 'NONE', #9, 20.00000000000000400 ) ;
#285 = LINE ( 'NONE', #179, #267 ) ;
#286 = LINE ( 'NONE', #191, #317 ) ;
#287 = CIRCLE ( 'NONE', #6, 20.00000000000000400 ) ;
#288 = LINE ( 'NONE', #168, #276 ) ;
#289 = CIRCLE ( 'NONE', #57, 20.00000000000000400 ) ;
#290 = CIRCLE ( 'NONE', #42, 15.00000000000000000 ) ;
#291 = ORIENTED_EDGE ( 'NONE', *, *, #20, .T. ) ;
#292 = ORIENTED_EDGE ( 'NONE', *, *, #4, .F. ) ;
#293 = CIRCLE ( 'NONE', #36, 15.00000000000000700 ) ;
#294 = ORIENTED_EDGE ( 'NONE', *, *, #12, .F. ) ;
#295 = ORIENTED_EDGE ( 'NONE', *, *, #2, .F. ) ;
#296 = CIRCLE ( 'NONE', #13, 15.00000000000000000 ) ;
#297 = EDGE_LOOP ( 'NONE', ( #292, #270, #337, #263 ) ) ;
#298 = LINE ( 'NONE', #130, #205 ) ;
#299 = CIRCLE ( 'NONE', #5, 15.00000000000000700 ) ;
#300 = EDGE_LOOP ( 'NONE', ( #324, #311 ) ) ;
#301 = FACE_OUTER_BOUND ( 'NONE', #234, .T. ) ;
#302 = CIRCLE ( 'NONE', #29, 19.80000000000000400 ) ;
#303 = ORIENTED_EDGE ( 'NONE', *, *, #3, .T. ) ;
#304 = EDGE_LOOP ( 'NONE', ( #319, #275 ) ) ;
#305 = ORIENTED_EDGE ( 'NONE', *, *, #17, .F. ) ;
#306 = FACE_BOUND ( 'NONE', #304, .T. ) ;
#307 = FACE_OUTER_BOUND ( 'NONE', #297, .T. ) ;
#308 = ORIENTED_EDGE ( 'NONE', *, *, #28, .F. ) ;
#309 = ORIENTED_EDGE ( 'NONE', *, *, #21, .T. ) ;
#310 = ORIENTED_EDGE ( 'NONE', *, *, #16, .T. ) ;
#311 = ORIENTED_EDGE ( 'NONE', *, *, #12, .T. ) ;
#312 = FACE_OUTER_BOUND ( 'NONE', #254, .T. ) ;
#313 = ORIENTED_EDGE ( 'NONE', *, *, #11, .F. ) ;
#314 = FACE_OUTER_BOUND ( 'NONE', #283, .T. ) ;
#315 = EDGE_LOOP ( 'NONE', ( #280, #309, #310, #247 ) ) ;
#316 = CYLINDRICAL_SURFACE ( 'NONE', #60, 20.00000000000000400 ) ;
#317 = VECTOR ( 'NONE', #184, 1000.000000000000000 ) ;
#318 = ORIENTED_EDGE ( 'NONE', *, *, #18, .T. ) ;
#319 = ORIENTED_EDGE ( 'NONE', *, *, #28, .T. ) ;
#320 = ORIENTED_EDGE ( 'NONE', *, *, #30, .T. ) ;
#321 = ORIENTED_EDGE ( 'NONE', *, *, #10, .F. ) ;
#322 = EDGE_LOOP ( 'NONE', ( #258, #295 ) ) ;
#323 = ORIENTED_EDGE ( 'NONE', *, *, #30, .F. ) ;
#324 = ORIENTED_EDGE ( 'NONE', *, *, #11, .T. ) ;
#325 = EDGE_LOOP ( 'NONE', ( #273, #233, #251, #207 ) ) ;
#326 = ORIENTED_EDGE ( 'NONE', *, *, #22, .T. ) ;
#327 = CIRCLE ( 'NONE', #14, 19.80000000000000400 ) ;
#328 = ORIENTED_EDGE ( 'NONE', *, *, #2, .T. ) ;
#329 = CALENDAR_DATE ( 2014, 8, 8 ) ;
#330 = LOCAL_TIME ( 12, 17, 23.00000000000000000, #331 ) ;
#331 = COORDINATED_UNIVERSAL_TIME_OFFSET ( 2, 0, .AHEAD. ) ;
#332 = PERSON_AND_ORGANIZATION ( #203, #262 ) ;
#333 = APPROVAL_DATE_TIME ( #334, #65 ) ;
#334 = DATE_AND_TIME ( #271, #272 ) ;
#335 = ORIENTED_EDGE ( 'NONE', *, *, #3, .F. ) ;
#336 = ORIENTED_EDGE ( 'NONE', *, *, #15, .F. ) ;
#337 = ORIENTED_EDGE ( 'NONE', *, *, #24, .F. ) ;
#338 = ORIENTED_EDGE ( 'NONE', *, *, #26, .T. ) ;
#339 = PRODUCT_DEFINITION_SHAPE ( 'NONE', 'NONE',  #53 ) ;
#340 = DESIGN_CONTEXT ( 'detailed design', #77, 'design' ) ;
#341 = UNCERTAINTY_MEASURE_WITH_UNIT (LENGTH_MEASURE( 1.000000000000000100E-005 ), #90, 'distance_accuracy_value', 'NONE');
#342 = MANIFOLD_SOLID_BREP ( 'Fillet1', #208 ) ;
#343 = ADVANCED_BREP_SHAPE_REPRESENTATION ( 'KH-3050', ( #342, #58 ), #265 ) ;
#344 = ADVANCED_FACE ( 'NONE', ( #307 ), #255, .T. ) ;
#345 = ADVANCED_FACE ( 'NONE', ( #277, #220 ), #141, .F. ) ;
#346 = ADVANCED_FACE ( 'NONE', ( #301, #306 ), #143, .F. ) ;
#347 = ADVANCED_FACE ( 'NONE', ( #231 ), #316, .T. ) ;
#348 = ADVANCED_FACE ( 'NONE', ( #256 ), #238, .F. ) ;
#349 = ADVANCED_FACE ( 'NONE', ( #219 ), #221, .T. ) ;
#350 = ADVANCED_FACE ( 'NONE', ( #314 ), #230, .T. ) ;
#351 = ADVANCED_FACE ( 'NONE', ( #232 ), #260, .T. ) ;
#352 = ADVANCED_FACE ( 'NONE', ( #257 ), #236, .F. ) ;
#353 = ADVANCED_FACE ( 'NONE', ( #312 ), #261, .T. ) ;
ENDSEC;
END-ISO-10303-21;
