ISO-10303-21;
HEADER;
FILE_DESCRIPTION (( 'STEP AP203' ),
    '1' );
FILE_NAME ('KH-2540.STEP',
    '2014-08-08T09:16:28',
    ( 'Ovidiu Buiga' ),
    ( '' ),
    'SwSTEP 2.0',
    'SolidWorks 2010',
    '' );
FILE_SCHEMA (( 'CONFIG_CONTROL_DESIGN' ));
ENDSEC;

DATA;
#1 = APPROVAL ( #58, 'UNSPECIFIED' ) ;
#2 = PRODUCT_DEFINITION_FORMATION_WITH_SPECIFIED_SOURCE ( 'ANY', '', #184, .NOT_KNOWN. ) ;
#3 = CC_DESIGN_DATE_AND_TIME_ASSIGNMENT ( #298, #59, ( #9 ) ) ;
#4 = EDGE_CURVE ( 'NONE', #129, #61, #235, .T. ) ;
#5 = CC_DESIGN_PERSON_AND_ORGANIZATION_ASSIGNMENT ( #290, #60, ( #9 ) ) ;
#6 = CC_DESIGN_APPROVAL ( #8, ( #9 ) ) ;
#7 = EDGE_CURVE ( 'NONE', #180, #79, #234, .T. ) ;
#8 = APPROVAL ( #63, 'UNSPECIFIED' ) ;
#9 = PRODUCT_DEFINITION ( 'UNKNOWN', '', #2, #325 ) ;
#10 = CC_DESIGN_PERSON_AND_ORGANIZATION_ASSIGNMENT ( #281, #70, ( #184 ) ) ;
#11 = EDGE_CURVE ( 'NONE', #172, #89, #242, .T. ) ;
#12 = EDGE_CURVE ( 'NONE', #183, #140, #241, .T. ) ;
#13 = AXIS2_PLACEMENT_3D ( 'NONE', #78, #77, #75 ) ;
#14 = EDGE_CURVE ( 'NONE', #89, #158, #225, .T. ) ;
#15 = AXIS2_PLACEMENT_3D ( 'NONE', #90, #81, #156 ) ;
#16 = EDGE_CURVE ( 'NONE', #61, #128, #276, .T. ) ;
#17 = AXIS2_PLACEMENT_3D ( 'NONE', #99, #107, #141 ) ;
#18 = AXIS2_PLACEMENT_3D ( 'NONE', #95, #87, #165 ) ;
#19 = AXIS2_PLACEMENT_3D ( 'NONE', #86, #85, #84 ) ;
#20 = AXIS2_PLACEMENT_3D ( 'NONE', #113, #98, #97 ) ;
#21 = AXIS2_PLACEMENT_3D ( 'NONE', #96, #94, #93 ) ;
#22 = AXIS2_PLACEMENT_3D ( 'NONE', #153, #67, #106 ) ;
#23 = AXIS2_PLACEMENT_3D ( 'NONE', #118, #115, #114 ) ;
#24 = AXIS2_PLACEMENT_3D ( 'NONE', #121, #134, #127 ) ;
#25 = AXIS2_PLACEMENT_3D ( 'NONE', #120, #116, #112 ) ;
#26 = EDGE_CURVE ( 'NONE', #109, #158, #259, .T. ) ;
#27 = AXIS2_PLACEMENT_3D ( 'NONE', #139, #133, #123 ) ;
#28 = EDGE_CURVE ( 'NONE', #158, #61, #233, .T. ) ;
#29 = EDGE_CURVE ( 'NONE', #140, #79, #245, .T. ) ;
#30 = AXIS2_PLACEMENT_3D ( 'NONE', #142, #148, #135 ) ;
#31 = AXIS2_PLACEMENT_3D ( 'NONE', #164, #155, #154 ) ;
#32 = EDGE_CURVE ( 'NONE', #183, #180, #244, .T. ) ;
#33 = AXIS2_PLACEMENT_3D ( 'NONE', #167, #157, #159 ) ;
#34 = PRODUCT_RELATED_PRODUCT_CATEGORY ( 'detail', '', ( #184 ) ) ;
#35 = CC_DESIGN_SECURITY_CLASSIFICATION ( #40, ( #2 ) ) ;
#36 = CC_DESIGN_APPROVAL ( #37, ( #40 ) ) ;
#37 = APPROVAL ( #48, 'UNSPECIFIED' ) ;
#38 = CC_DESIGN_DATE_AND_TIME_ASSIGNMENT ( #282, #49, ( #40 ) ) ;
#39 = CC_DESIGN_PERSON_AND_ORGANIZATION_ASSIGNMENT ( #307, #50, ( #40 ) ) ;
#40 = SECURITY_CLASSIFICATION ( '', '', #52 ) ;
#41 = CC_DESIGN_PERSON_AND_ORGANIZATION_ASSIGNMENT ( #313, #54, ( #2 ) ) ;
#42 = CC_DESIGN_PERSON_AND_ORGANIZATION_ASSIGNMENT ( #286, #55, ( #2 ) ) ;
#43 = CC_DESIGN_APPROVAL ( #1, ( #2 ) ) ;
#44 = UNCERTAINTY_MEASURE_WITH_UNIT (LENGTH_MEASURE( 1.000000000000000100E-005 ), #82, 'distance_accuracy_value', 'NONE');
#45 = ADVANCED_BREP_SHAPE_REPRESENTATION ( 'KH-2540', ( #46, #13 ), #279 ) ;
#46 = MANIFOLD_SOLID_BREP ( 'Fillet1', #256 ) ;
#47 = APPROVAL_ROLE ( '' ) ;
#48 = APPROVAL_STATUS ( 'not_yet_approved' ) ;
#49 = DATE_TIME_ROLE ( 'classification_date' ) ;
#50 = PERSON_AND_ORGANIZATION_ROLE ( 'classification_officer' ) ;
#51 = DIRECTION ( 'NONE',  ( -1.000000000000000000, -0.0000000000000000000, -0.0000000000000000000 ) ) ;
#52 = SECURITY_CLASSIFICATION_LEVEL ( 'unclassified' ) ;
#53 = CARTESIAN_POINT ( 'NONE',  ( 19.79999999999999700, 2.118638962524921500E-015, -17.30000000000000400 ) ) ;
#54 = PERSON_AND_ORGANIZATION_ROLE ( 'design_supplier' ) ;
#55 = PERSON_AND_ORGANIZATION_ROLE ( 'creator' ) ;
#56 = APPROVAL_ROLE ( '' ) ;
#57 = CARTESIAN_POINT ( 'NONE',  ( -19.99999999999999600, 0.0000000000000000000, 0.0000000000000000000 ) ) ;
#58 = APPROVAL_STATUS ( 'not_yet_approved' ) ;
#59 = DATE_TIME_ROLE ( 'creation_date' ) ;
#60 = PERSON_AND_ORGANIZATION_ROLE ( 'creator' ) ;
#61 = VERTEX_POINT ( 'NONE', #119 ) ;
#62 = APPROVAL_ROLE ( '' ) ;
#63 = APPROVAL_STATUS ( 'not_yet_approved' ) ;
#64 = DIRECTION ( 'NONE',  ( -1.000000000000000000, -0.0000000000000000000, -0.0000000000000000000 ) ) ;
#65 = APPLICATION_PROTOCOL_DEFINITION ( 'international standard', 'config_control_design', 1994, #69 ) ;
#66 = DIRECTION ( 'NONE',  ( 0.0000000000000000000, 0.0000000000000000000, -1.000000000000000000 ) ) ;
#67 = DIRECTION ( 'NONE',  ( 1.000000000000000000, 0.0000000000000000000, 0.0000000000000000000 ) ) ;
#68 = CARTESIAN_POINT ( 'NONE',  ( 19.99999999999998900, 0.0000000000000000000, 0.0000000000000000000 ) ) ;
#69 = APPLICATION_CONTEXT ( 'configuration controlled 3d designs of mechanical parts and assemblies' ) ;
#70 = PERSON_AND_ORGANIZATION_ROLE ( 'design_owner' ) ;
#71 = MECHANICAL_CONTEXT ( 'NONE', #74, 'mechanical' ) ;
#72 = DIRECTION ( 'NONE',  ( 0.0000000000000000000, -1.224646799147353900E-016, 1.000000000000000000 ) ) ;
#73 = APPLICATION_PROTOCOL_DEFINITION ( 'international standard', 'config_control_design', 1994, #74 ) ;
#74 = APPLICATION_CONTEXT ( 'configuration controlled 3d designs of mechanical parts and assemblies' ) ;
#75 = DIRECTION ( 'NONE',  ( 1.000000000000000000, 0.0000000000000000000, 0.0000000000000000000 ) ) ;
#76 = CARTESIAN_POINT ( 'NONE',  ( -68.33153641321104000, 2.143131898507868200E-015, -17.50000000000000000 ) ) ;
#77 = DIRECTION ( 'NONE',  ( 0.0000000000000000000, 0.0000000000000000000, 1.000000000000000000 ) ) ;
#78 = CARTESIAN_POINT ( 'NONE',  ( 0.0000000000000000000, 0.0000000000000000000, 0.0000000000000000000 ) ) ;
#79 = VERTEX_POINT ( 'NONE', #176 ) ;
#80 =( NAMED_UNIT ( * ) SI_UNIT ( $, .STERADIAN. ) SOLID_ANGLE_UNIT ( ) );
#81 = DIRECTION ( 'NONE',  ( -1.000000000000000000, -0.0000000000000000000, -0.0000000000000000000 ) ) ;
#82 =( LENGTH_UNIT ( ) NAMED_UNIT ( * ) SI_UNIT ( .MILLI., .METRE. ) );
#83 =( NAMED_UNIT ( * ) PLANE_ANGLE_UNIT ( ) SI_UNIT ( $, .RADIAN. ) );
#84 = DIRECTION ( 'NONE',  ( 0.0000000000000000000, 0.0000000000000000000, 1.000000000000000000 ) ) ;
#85 = DIRECTION ( 'NONE',  ( -1.000000000000000000, -0.0000000000000000000, -0.0000000000000000000 ) ) ;
#86 = CARTESIAN_POINT ( 'NONE',  ( -19.99999999999999600, 0.0000000000000000000, 0.0000000000000000000 ) ) ;
#87 = DIRECTION ( 'NONE',  ( 0.0000000000000000000, -1.000000000000000000, 0.0000000000000000000 ) ) ;
#88 = DIRECTION ( 'NONE',  ( 0.0000000000000000000, 0.0000000000000000000, -1.000000000000000000 ) ) ;
#89 = VERTEX_POINT ( 'NONE', #166 ) ;
#90 = CARTESIAN_POINT ( 'NONE',  ( -19.99999999999999600, 0.0000000000000000000, 0.0000000000000000000 ) ) ;
#91 = DIRECTION ( 'NONE',  ( -1.000000000000000000, -0.0000000000000000000, -0.0000000000000000000 ) ) ;
#92 = CARTESIAN_POINT ( 'NONE',  ( -68.33153641321104000, 0.0000000000000000000, 17.50000000000000000 ) ) ;
#93 = DIRECTION ( 'NONE',  ( 0.0000000000000000000, 0.0000000000000000000, 1.000000000000000000 ) ) ;
#94 = DIRECTION ( 'NONE',  ( -1.000000000000000000, -0.0000000000000000000, -0.0000000000000000000 ) ) ;
#95 = CARTESIAN_POINT ( 'NONE',  ( 19.79999999999999700, 0.0000000000000000000, 17.30000000000000400 ) ) ;
#96 = CARTESIAN_POINT ( 'NONE',  ( 19.79999999999999700, 0.0000000000000000000, 0.0000000000000000000 ) ) ;
#97 = DIRECTION ( 'NONE',  ( 0.0000000000000000000, 0.0000000000000000000, -1.000000000000000000 ) ) ;
#98 = DIRECTION ( 'NONE',  ( -1.000000000000000000, -0.0000000000000000000, -0.0000000000000000000 ) ) ;
#99 = CARTESIAN_POINT ( 'NONE',  ( 19.99999999999998900, 0.0000000000000000000, 0.0000000000000000000 ) ) ;
#100 = DIRECTION ( 'NONE',  ( 0.0000000000000000000, 0.0000000000000000000, 1.000000000000000000 ) ) ;
#101 = DIRECTION ( 'NONE',  ( -1.000000000000000000, -0.0000000000000000000, -0.0000000000000000000 ) ) ;
#102 = DIRECTION ( 'NONE',  ( 0.0000000000000000000, 0.0000000000000000000, 1.000000000000000000 ) ) ;
#103 = CARTESIAN_POINT ( 'NONE',  ( 19.99999999999999600, 0.0000000000000000000, 0.0000000000000000000 ) ) ;
#104 = DIRECTION ( 'NONE',  ( 0.0000000000000000000, 0.0000000000000000000, -1.000000000000000000 ) ) ;
#105 = DIRECTION ( 'NONE',  ( 1.000000000000000000, 0.0000000000000000000, 0.0000000000000000000 ) ) ;
#106 = DIRECTION ( 'NONE',  ( 0.0000000000000000000, 0.0000000000000000000, 1.000000000000000000 ) ) ;
#107 = DIRECTION ( 'NONE',  ( -1.000000000000000000, -0.0000000000000000000, -0.0000000000000000000 ) ) ;
#108 = CARTESIAN_POINT ( 'NONE',  ( -19.79999999999999700, 0.0000000000000000000, 0.0000000000000000000 ) ) ;
#109 = VERTEX_POINT ( 'NONE', #175 ) ;
#110 = DIRECTION ( 'NONE',  ( 0.0000000000000000000, 1.224646799147353900E-016, 1.000000000000000000 ) ) ;
#111 = DIRECTION ( 'NONE',  ( 0.0000000000000000000, 1.000000000000000000, -1.224646799147353200E-016 ) ) ;
#112 = DIRECTION ( 'NONE',  ( 0.0000000000000000000, 0.0000000000000000000, -1.000000000000000000 ) ) ;
#113 = CARTESIAN_POINT ( 'NONE',  ( -19.99999999999999600, 0.0000000000000000000, 0.0000000000000000000 ) ) ;
#114 = DIRECTION ( 'NONE',  ( -0.0000000000000000000, 0.0000000000000000000, 1.000000000000000000 ) ) ;
#115 = DIRECTION ( 'NONE',  ( -1.000000000000000000, 0.0000000000000000000, -0.0000000000000000000 ) ) ;
#116 = DIRECTION ( 'NONE',  ( 1.000000000000000000, 0.0000000000000000000, 0.0000000000000000000 ) ) ;
#117 = PLANE ( 'NONE',  #23 ) ;
#118 = CARTESIAN_POINT ( 'NONE',  ( 19.99999999999999600, 17.50000000000000400, 0.0000000000000000000 ) ) ;
#119 = CARTESIAN_POINT ( 'NONE',  ( -19.79999999999999700, 2.143131898507868200E-015, -17.50000000000000000 ) ) ;
#120 = CARTESIAN_POINT ( 'NONE',  ( -19.79999999999999700, 0.0000000000000000000, 0.0000000000000000000 ) ) ;
#121 = CARTESIAN_POINT ( 'NONE',  ( -68.33153641321104000, 0.0000000000000000000, 0.0000000000000000000 ) ) ;
#122 = DIRECTION ( 'NONE',  ( 0.0000000000000000000, -1.000000000000000000, 0.0000000000000000000 ) ) ;
#123 = DIRECTION ( 'NONE',  ( 0.0000000000000000000, 0.0000000000000000000, 1.000000000000000000 ) ) ;
#124 = DIRECTION ( 'NONE',  ( -0.0000000000000000000, 1.000000000000000000, 1.224646799147353200E-016 ) ) ;
#125 = DIRECTION ( 'NONE',  ( 0.0000000000000000000, 0.0000000000000000000, 1.000000000000000000 ) ) ;
#126 = CARTESIAN_POINT ( 'NONE',  ( -19.79999999999999700, 0.0000000000000000000, 0.0000000000000000000 ) ) ;
#127 = DIRECTION ( 'NONE',  ( 0.0000000000000000000, 0.0000000000000000000, 1.000000000000000000 ) ) ;
#128 = VERTEX_POINT ( 'NONE', #177 ) ;
#129 = VERTEX_POINT ( 'NONE', #174 ) ;
#130 = CARTESIAN_POINT ( 'NONE',  ( -19.79999999999999700, 2.118638962524921500E-015, 17.30000000000000400 ) ) ;
#131 = DIRECTION ( 'NONE',  ( 0.0000000000000000000, 0.0000000000000000000, 1.000000000000000000 ) ) ;
#132 = CARTESIAN_POINT ( 'NONE',  ( -19.79999999999999700, 0.0000000000000000000, -17.30000000000000400 ) ) ;
#133 = DIRECTION ( 'NONE',  ( -1.000000000000000000, -0.0000000000000000000, -0.0000000000000000000 ) ) ;
#134 = DIRECTION ( 'NONE',  ( -1.000000000000000000, -0.0000000000000000000, -0.0000000000000000000 ) ) ;
#135 = DIRECTION ( 'NONE',  ( 0.0000000000000000000, 0.0000000000000000000, -1.000000000000000000 ) ) ;
#136 = CARTESIAN_POINT ( 'NONE',  ( -68.33153641321104000, 1.530808498934191900E-015, -12.50000000000000400 ) ) ;
#137 = DIRECTION ( 'NONE',  ( -1.000000000000000000, -0.0000000000000000000, -0.0000000000000000000 ) ) ;
#138 = DIRECTION ( 'NONE',  ( 1.000000000000000000, 0.0000000000000000000, 0.0000000000000000000 ) ) ;
#139 = CARTESIAN_POINT ( 'NONE',  ( 19.79999999999999700, 0.0000000000000000000, 0.0000000000000000000 ) ) ;
#140 = VERTEX_POINT ( 'NONE', #173 ) ;
#141 = DIRECTION ( 'NONE',  ( 0.0000000000000000000, 0.0000000000000000000, 1.000000000000000000 ) ) ;
#142 = CARTESIAN_POINT ( 'NONE',  ( -19.79999999999999700, 0.0000000000000000000, 0.0000000000000000000 ) ) ;
#143 = CARTESIAN_POINT ( 'NONE',  ( 19.79999999999999700, 0.0000000000000000000, 0.0000000000000000000 ) ) ;
#144 = CARTESIAN_POINT ( 'NONE',  ( -68.33153641321104000, 0.0000000000000000000, 0.0000000000000000000 ) ) ;
#145 = DIRECTION ( 'NONE',  ( 0.0000000000000000000, 0.0000000000000000000, 1.000000000000000000 ) ) ;
#146 = DIRECTION ( 'NONE',  ( -1.000000000000000000, -0.0000000000000000000, -0.0000000000000000000 ) ) ;
#147 = CARTESIAN_POINT ( 'NONE',  ( 19.79999999999999700, 0.0000000000000000000, 0.0000000000000000000 ) ) ;
#148 = DIRECTION ( 'NONE',  ( 1.000000000000000000, 0.0000000000000000000, 0.0000000000000000000 ) ) ;
#149 = CARTESIAN_POINT ( 'NONE',  ( -68.33153641321104000, 0.0000000000000000000, 0.0000000000000000000 ) ) ;
#150 = DIRECTION ( 'NONE',  ( -1.000000000000000000, -0.0000000000000000000, -0.0000000000000000000 ) ) ;
#151 = DIRECTION ( 'NONE',  ( 0.0000000000000000000, 0.0000000000000000000, 1.000000000000000000 ) ) ;
#152 = DIRECTION ( 'NONE',  ( 0.0000000000000000000, 0.0000000000000000000, 1.000000000000000000 ) ) ;
#153 = CARTESIAN_POINT ( 'NONE',  ( 19.99999999999999600, 0.0000000000000000000, 0.0000000000000000000 ) ) ;
#154 = DIRECTION ( 'NONE',  ( 0.0000000000000000000, 0.0000000000000000000, -1.000000000000000000 ) ) ;
#155 = DIRECTION ( 'NONE',  ( 1.000000000000000000, 0.0000000000000000000, 0.0000000000000000000 ) ) ;
#156 = DIRECTION ( 'NONE',  ( 0.0000000000000000000, 0.0000000000000000000, -1.000000000000000000 ) ) ;
#157 = DIRECTION ( 'NONE',  ( -1.000000000000000000, -0.0000000000000000000, -0.0000000000000000000 ) ) ;
#158 = VERTEX_POINT ( 'NONE', #171 ) ;
#159 = DIRECTION ( 'NONE',  ( 0.0000000000000000000, 0.0000000000000000000, 1.000000000000000000 ) ) ;
#160 = VERTEX_POINT ( 'NONE', #179 ) ;
#161 = DIRECTION ( 'NONE',  ( 1.000000000000000000, 0.0000000000000000000, 0.0000000000000000000 ) ) ;
#162 = PLANE ( 'NONE',  #31 ) ;
#163 = DIRECTION ( 'NONE',  ( -1.000000000000000000, -0.0000000000000000000, -0.0000000000000000000 ) ) ;
#164 = CARTESIAN_POINT ( 'NONE',  ( -19.99999999999999600, 12.50000000000000000, 0.0000000000000000000 ) ) ;
#165 = DIRECTION ( 'NONE',  ( 0.0000000000000000000, 0.0000000000000000000, -1.000000000000000000 ) ) ;
#166 = CARTESIAN_POINT ( 'NONE',  ( 19.99999999999999600, 2.130885430516395300E-015, -17.30000000000000400 ) ) ;
#167 = CARTESIAN_POINT ( 'NONE',  ( -68.33153641321104000, 0.0000000000000000000, 0.0000000000000000000 ) ) ;
#168 = CARTESIAN_POINT ( 'NONE',  ( 19.99999999999998900, 1.530808498934192300E-015, -12.50000000000000700 ) ) ;
#169 = CARTESIAN_POINT ( 'NONE',  ( 19.99999999999998900, 0.0000000000000000000, 12.50000000000000500 ) ) ;
#170 = CARTESIAN_POINT ( 'NONE',  ( 19.99999999999999600, 0.0000000000000000000, 17.30000000000000400 ) ) ;
#171 = CARTESIAN_POINT ( 'NONE',  ( 19.79999999999999700, 2.143131898507868200E-015, -17.50000000000000000 ) ) ;
#172 = VERTEX_POINT ( 'NONE', #170 ) ;
#173 = CARTESIAN_POINT ( 'NONE',  ( -19.99999999999999600, 1.530808498934191700E-015, -12.50000000000000000 ) ) ;
#174 = CARTESIAN_POINT ( 'NONE',  ( -19.99999999999999600, 0.0000000000000000000, -17.30000000000000400 ) ) ;
#175 = CARTESIAN_POINT ( 'NONE',  ( 19.79999999999999700, 0.0000000000000000000, 17.50000000000000000 ) ) ;
#176 = CARTESIAN_POINT ( 'NONE',  ( -19.99999999999999600, 0.0000000000000000000, 12.50000000000000000 ) ) ;
#177 = CARTESIAN_POINT ( 'NONE',  ( -19.79999999999999700, 0.0000000000000000000, 17.50000000000000000 ) ) ;
#178 = DIRECTION ( 'NONE',  ( -1.000000000000000000, -0.0000000000000000000, -0.0000000000000000000 ) ) ;
#179 = CARTESIAN_POINT ( 'NONE',  ( -19.99999999999999600, 2.130885430516395300E-015, 17.30000000000000400 ) ) ;
#180 = VERTEX_POINT ( 'NONE', #169 ) ;
#181 = DIRECTION ( 'NONE',  ( -1.000000000000000000, -0.0000000000000000000, -0.0000000000000000000 ) ) ;
#182 = CARTESIAN_POINT ( 'NONE',  ( -68.33153641321104000, 0.0000000000000000000, 12.50000000000000400 ) ) ;
#183 = VERTEX_POINT ( 'NONE', #168 ) ;
#184 = PRODUCT ( 'KH-2540', 'KH-2540', '', ( #71 ) ) ;
#185 = PERSON ( 'UNSPECIFIED', 'UNSPECIFIED', 'UNSPECIFIED', ('UNSPECIFIED'), ('UNSPECIFIED'), ('UNSPECIFIED') ) ;
#186 = ORIENTED_EDGE ( 'NONE', *, *, #346, .F. ) ;
#187 = ORIENTED_EDGE ( 'NONE', *, *, #16, .F. ) ;
#188 = ORIENTED_EDGE ( 'NONE', *, *, #32, .F. ) ;
#189 = EDGE_LOOP ( 'NONE', ( #188, #205, #229, #257 ) ) ;
#190 = EDGE_LOOP ( 'NONE', ( #258, #203, #264, #216 ) ) ;
#191 = ORIENTED_EDGE ( 'NONE', *, *, #11, .T. ) ;
#192 = EDGE_LOOP ( 'NONE', ( #186, #252, #187, #230 ) ) ;
#193 = ORIENTED_EDGE ( 'NONE', *, *, #11, .F. ) ;
#194 = ORIENTED_EDGE ( 'NONE', *, *, #349, .F. ) ;
#195 = FACE_OUTER_BOUND ( 'NONE', #192, .T. ) ;
#196 = VECTOR ( 'NONE', #91, 1000.000000000000000 ) ;
#197 = ORIENTED_EDGE ( 'NONE', *, *, #28, .F. ) ;
#198 = ORIENTED_EDGE ( 'NONE', *, *, #12, .F. ) ;
#199 = CIRCLE ( 'NONE', #342, 17.50000000000000000 ) ;
#200 = FACE_OUTER_BOUND ( 'NONE', #190, .T. ) ;
#201 = EDGE_LOOP ( 'NONE', ( #232, #275 ) ) ;
#202 = CIRCLE ( 'NONE', #20, 17.30000000000000400 ) ;
#203 = ORIENTED_EDGE ( 'NONE', *, *, #14, .T. ) ;
#204 = ORIENTED_EDGE ( 'NONE', *, *, #26, .T. ) ;
#205 = ORIENTED_EDGE ( 'NONE', *, *, #12, .T. ) ;
#206 = ORIENTED_EDGE ( 'NONE', *, *, #14, .F. ) ;
#207 = ORIENTED_EDGE ( 'NONE', *, *, #338, .F. ) ;
#208 = EDGE_LOOP ( 'NONE', ( #206, #193, #236, #213 ) ) ;
#209 = ORIENTED_EDGE ( 'NONE', *, *, #338, .T. ) ;
#210 = CIRCLE ( 'NONE', #337, 0.1999999999999987900 ) ;
#211 = ORIENTED_EDGE ( 'NONE', *, *, #29, .F. ) ;
#212 = ORIENTED_EDGE ( 'NONE', *, *, #7, .T. ) ;
#213 = ORIENTED_EDGE ( 'NONE', *, *, #347, .F. ) ;
#214 = ORIENTED_EDGE ( 'NONE', *, *, #353, .F. ) ;
#215 = ORIENTED_EDGE ( 'NONE', *, *, #32, .T. ) ;
#216 = ORIENTED_EDGE ( 'NONE', *, *, #351, .F. ) ;
#217 = FACE_OUTER_BOUND ( 'NONE', #239, .T. ) ;
#218 = FACE_OUTER_BOUND ( 'NONE', #273, .T. ) ;
#219 = TOROIDAL_SURFACE ( 'NONE', #336, 17.30000000000000400, 0.2000000000000000100 ) ;
#220 = CYLINDRICAL_SURFACE ( 'NONE', #333, 17.50000000000000000 ) ;
#221 = ORIENTED_EDGE ( 'NONE', *, *, #352, .F. ) ;
#222 = TOROIDAL_SURFACE ( 'NONE', #27, 17.30000000000000400, 0.2000000000000000100 ) ;
#223 = ORIENTED_EDGE ( 'NONE', *, *, #352, .T. ) ;
#224 = ORIENTED_EDGE ( 'NONE', *, *, #334, .F. ) ;
#225 = CIRCLE ( 'NONE', #350, 0.1999999999999987900 ) ;
#226 = CYLINDRICAL_SURFACE ( 'NONE', #33, 12.50000000000000400 ) ;
#227 = CIRCLE ( 'NONE', #335, 17.30000000000000400 ) ;
#228 = FACE_OUTER_BOUND ( 'NONE', #201, .T. ) ;
#229 = ORIENTED_EDGE ( 'NONE', *, *, #29, .T. ) ;
#230 = ORIENTED_EDGE ( 'NONE', *, *, #4, .F. ) ;
#231 = ORIENTED_EDGE ( 'NONE', *, *, #348, .T. ) ;
#232 = ORIENTED_EDGE ( 'NONE', *, *, #353, .T. ) ;
#233 = LINE ( 'NONE', #76, #247 ) ;
#234 = LINE ( 'NONE', #182, #269 ) ;
#235 = CIRCLE ( 'NONE', #339, 0.1999999999999987900 ) ;
#236 = ORIENTED_EDGE ( 'NONE', *, *, #351, .T. ) ;
#237 = ORIENTED_EDGE ( 'NONE', *, *, #4, .T. ) ;
#238 = EDGE_LOOP ( 'NONE', ( #191, #253 ) ) ;
#239 = EDGE_LOOP ( 'NONE', ( #198, #194, #212, #223 ) ) ;
#240 = FACE_BOUND ( 'NONE', #251, .T. ) ;
#241 = LINE ( 'NONE', #136, #261 ) ;
#242 = CIRCLE ( 'NONE', #22, 17.30000000000000400 ) ;
#243 = FACE_OUTER_BOUND ( 'NONE', #270, .T. ) ;
#244 = CIRCLE ( 'NONE', #341, 12.50000000000000500 ) ;
#245 = CIRCLE ( 'NONE', #340, 12.50000000000000000 ) ;
#246 = FACE_OUTER_BOUND ( 'NONE', #277, .T. ) ;
#247 = VECTOR ( 'NONE', #64, 1000.000000000000000 ) ;
#248 = ORIENTED_EDGE ( 'NONE', *, *, #347, .T. ) ;
#249 = FACE_OUTER_BOUND ( 'NONE', #208, .T. ) ;
#250 = ORIENTED_EDGE ( 'NONE', *, *, #349, .T. ) ;
#251 = EDGE_LOOP ( 'NONE', ( #221, #211 ) ) ;
#252 = ORIENTED_EDGE ( 'NONE', *, *, #334, .T. ) ;
#253 = ORIENTED_EDGE ( 'NONE', *, *, #345, .T. ) ;
#254 = FACE_OUTER_BOUND ( 'NONE', #238, .T. ) ;
#255 = TOROIDAL_SURFACE ( 'NONE', #30, 17.30000000000000400, 0.2000000000000000100 ) ;
#256 = CLOSED_SHELL ( 'NONE', ( #327, #331, #329, #322, #323, #330, #321, #320, #326, #328 ) ) ;
#257 = ORIENTED_EDGE ( 'NONE', *, *, #7, .F. ) ;
#258 = ORIENTED_EDGE ( 'NONE', *, *, #345, .F. ) ;
#259 = CIRCLE ( 'NONE', #344, 17.50000000000000000 ) ;
#260 = FACE_BOUND ( 'NONE', #262, .T. ) ;
#261 = VECTOR ( 'NONE', #181, 1000.000000000000000 ) ;
#262 = EDGE_LOOP ( 'NONE', ( #250, #215 ) ) ;
#263 = LINE ( 'NONE', #92, #196 ) ;
#264 = ORIENTED_EDGE ( 'NONE', *, *, #26, .F. ) ;
#265 = TOROIDAL_SURFACE ( 'NONE', #25, 17.30000000000000400, 0.2000000000000000100 ) ;
#266 = FACE_OUTER_BOUND ( 'NONE', #189, .T. ) ;
#267 = ORIENTED_EDGE ( 'NONE', *, *, #348, .F. ) ;
#268 = ORIENTED_EDGE ( 'NONE', *, *, #16, .T. ) ;
#269 = VECTOR ( 'NONE', #163, 1000.000000000000000 ) ;
#270 = EDGE_LOOP ( 'NONE', ( #197, #248, #231, #209 ) ) ;
#271 = ORIENTED_EDGE ( 'NONE', *, *, #28, .T. ) ;
#272 = CYLINDRICAL_SURFACE ( 'NONE', #24, 12.50000000000000400 ) ;
#273 = EDGE_LOOP ( 'NONE', ( #204, #271, #268, #267 ) ) ;
#274 = CYLINDRICAL_SURFACE ( 'NONE', #332, 17.50000000000000000 ) ;
#275 = ORIENTED_EDGE ( 'NONE', *, *, #346, .T. ) ;
#276 = CIRCLE ( 'NONE', #343, 17.50000000000000000 ) ;
#277 = EDGE_LOOP ( 'NONE', ( #224, #214, #237, #207 ) ) ;
#278 = PERSON_AND_ORGANIZATION ( #185, #315 ) ;
#279 =( GEOMETRIC_REPRESENTATION_CONTEXT ( 3 ) GLOBAL_UNCERTAINTY_ASSIGNED_CONTEXT ( ( #44 ) ) GLOBAL_UNIT_ASSIGNED_CONTEXT ( ( #82, #83, #80 ) ) REPRESENTATION_CONTEXT ( 'NONE', 'WORKASPACE' ) );
#280 = CIRCLE ( 'NONE', #21, 17.50000000000000000 ) ;
#281 = PERSON_AND_ORGANIZATION ( #185, #315 ) ;
#282 = DATE_AND_TIME ( #293, #308 ) ;
#283 = COORDINATED_UNIVERSAL_TIME_OFFSET ( 2, 0, .AHEAD. ) ;
#284 = COORDINATED_UNIVERSAL_TIME_OFFSET ( 2, 0, .AHEAD. ) ;
#285 = CIRCLE ( 'NONE', #17, 12.50000000000000500 ) ;
#286 = PERSON_AND_ORGANIZATION ( #185, #315 ) ;
#287 = COORDINATED_UNIVERSAL_TIME_OFFSET ( 2, 0, .AHEAD. ) ;
#288 = PERSON_AND_ORGANIZATION ( #185, #315 ) ;
#289 = CALENDAR_DATE ( 2014, 8, 8 ) ;
#290 = PERSON_AND_ORGANIZATION ( #185, #315 ) ;
#291 = APPROVAL_DATE_TIME ( #292, #1 ) ;
#292 = DATE_AND_TIME ( #305, #302 ) ;
#293 = CALENDAR_DATE ( 2014, 8, 8 ) ;
#294 = SHAPE_DEFINITION_REPRESENTATION ( #324, #45 ) ;
#295 = DATE_AND_TIME ( #299, #314 ) ;
#296 = APPROVAL_DATE_TIME ( #295, #8 ) ;
#297 = DATE_AND_TIME ( #306, #304 ) ;
#298 = DATE_AND_TIME ( #289, #316 ) ;
#299 = CALENDAR_DATE ( 2014, 8, 8 ) ;
#300 = CIRCLE ( 'NONE', #19, 12.50000000000000000 ) ;
#301 = CIRCLE ( 'NONE', #15, 17.30000000000000400 ) ;
#302 = LOCAL_TIME ( 12, 16, 28.00000000000000000, #287 ) ;
#303 = COORDINATED_UNIVERSAL_TIME_OFFSET ( 2, 0, .AHEAD. ) ;
#304 = LOCAL_TIME ( 12, 16, 28.00000000000000000, #312 ) ;
#305 = CALENDAR_DATE ( 2014, 8, 8 ) ;
#306 = CALENDAR_DATE ( 2014, 8, 8 ) ;
#307 = PERSON_AND_ORGANIZATION ( #185, #315 ) ;
#308 = LOCAL_TIME ( 12, 16, 28.00000000000000000, #303 ) ;
#309 = PERSON_AND_ORGANIZATION ( #185, #315 ) ;
#310 = APPROVAL_PERSON_ORGANIZATION ( #278, #8, #62 ) ;
#311 = CIRCLE ( 'NONE', #18, 0.1999999999999987900 ) ;
#312 = COORDINATED_UNIVERSAL_TIME_OFFSET ( 2, 0, .AHEAD. ) ;
#313 = PERSON_AND_ORGANIZATION ( #185, #315 ) ;
#314 = LOCAL_TIME ( 12, 16, 28.00000000000000000, #283 ) ;
#315 = ORGANIZATION ( 'UNSPECIFIED', 'UNSPECIFIED', '' ) ;
#316 = LOCAL_TIME ( 12, 16, 28.00000000000000000, #284 ) ;
#317 = APPROVAL_PERSON_ORGANIZATION ( #309, #37, #47 ) ;
#318 = APPROVAL_PERSON_ORGANIZATION ( #288, #1, #56 ) ;
#319 = APPROVAL_DATE_TIME ( #297, #37 ) ;
#320 = ADVANCED_FACE ( 'NONE', ( #228, #240 ), #162, .F. ) ;
#321 = ADVANCED_FACE ( 'NONE', ( #217 ), #226, .F. ) ;
#322 = ADVANCED_FACE ( 'NONE', ( #218 ), #274, .T. ) ;
#323 = ADVANCED_FACE ( 'NONE', ( #243 ), #220, .T. ) ;
#324 = PRODUCT_DEFINITION_SHAPE ( 'NONE', 'NONE',  #9 ) ;
#325 = DESIGN_CONTEXT ( 'detailed design', #69, 'design' ) ;
#326 = ADVANCED_FACE ( 'NONE', ( #246 ), #255, .T. ) ;
#327 = ADVANCED_FACE ( 'NONE', ( #200 ), #219, .T. ) ;
#328 = ADVANCED_FACE ( 'NONE', ( #249 ), #222, .T. ) ;
#329 = ADVANCED_FACE ( 'NONE', ( #266 ), #272, .F. ) ;
#330 = ADVANCED_FACE ( 'NONE', ( #254, #260 ), #117, .F. ) ;
#331 = ADVANCED_FACE ( 'NONE', ( #195 ), #265, .T. ) ;
#332 = AXIS2_PLACEMENT_3D ( 'NONE', #149, #150, #152 ) ;
#333 = AXIS2_PLACEMENT_3D ( 'NONE', #144, #146, #151 ) ;
#334 = EDGE_CURVE ( 'NONE', #160, #128, #210, .T. ) ;
#335 = AXIS2_PLACEMENT_3D ( 'NONE', #103, #138, #100 ) ;
#336 = AXIS2_PLACEMENT_3D ( 'NONE', #143, #137, #131 ) ;
#337 = AXIS2_PLACEMENT_3D ( 'NONE', #130, #111, #110 ) ;
#338 = EDGE_CURVE ( 'NONE', #128, #61, #199, .T. ) ;
#339 = AXIS2_PLACEMENT_3D ( 'NONE', #132, #122, #66 ) ;
#340 = AXIS2_PLACEMENT_3D ( 'NONE', #57, #51, #125 ) ;
#341 = AXIS2_PLACEMENT_3D ( 'NONE', #68, #178, #102 ) ;
#342 = AXIS2_PLACEMENT_3D ( 'NONE', #108, #105, #104 ) ;
#343 = AXIS2_PLACEMENT_3D ( 'NONE', #126, #161, #88 ) ;
#344 = AXIS2_PLACEMENT_3D ( 'NONE', #147, #101, #145 ) ;
#345 = EDGE_CURVE ( 'NONE', #89, #172, #227, .T. ) ;
#346 = EDGE_CURVE ( 'NONE', #160, #129, #202, .T. ) ;
#347 = EDGE_CURVE ( 'NONE', #158, #109, #280, .T. ) ;
#348 = EDGE_CURVE ( 'NONE', #109, #128, #263, .T. ) ;
#349 = EDGE_CURVE ( 'NONE', #180, #183, #285, .T. ) ;
#350 = AXIS2_PLACEMENT_3D ( 'NONE', #53, #124, #72 ) ;
#351 = EDGE_CURVE ( 'NONE', #172, #109, #311, .T. ) ;
#352 = EDGE_CURVE ( 'NONE', #79, #140, #300, .T. ) ;
#353 = EDGE_CURVE ( 'NONE', #129, #160, #301, .T. ) ;
ENDSEC;
END-ISO-10303-21;
