ISO-10303-21;
HEADER;
FILE_DESCRIPTION (( 'STEP AP203' ),
    '1' );
FILE_NAME ('KH-2030.STEP',
    '2014-08-08T09:15:32',
    ( 'Ovidiu Buiga' ),
    ( '' ),
    'SwSTEP 2.0',
    'SolidWorks 2010',
    '' );
FILE_SCHEMA (( 'CONFIG_CONTROL_DESIGN' ));
ENDSEC;

DATA;
#1 = AXIS2_PLACEMENT_3D ( 'NONE', #183, #119, #118 ) ;
#2 = AXIS2_PLACEMENT_3D ( 'NONE', #158, #60, #99 ) ;
#3 = AXIS2_PLACEMENT_3D ( 'NONE', #192, #121, #182 ) ;
#4 = AXIS2_PLACEMENT_3D ( 'NONE', #133, #135, #134 ) ;
#5 = AXIS2_PLACEMENT_3D ( 'NONE', #170, #163, #140 ) ;
#6 = AXIS2_PLACEMENT_3D ( 'NONE', #171, #161, #159 ) ;
#7 = AXIS2_PLACEMENT_3D ( 'NONE', #168, #169, #175 ) ;
#8 = AXIS2_PLACEMENT_3D ( 'NONE', #166, #124, #173 ) ;
#9 = AXIS2_PLACEMENT_3D ( 'NONE', #157, #162, #143 ) ;
#10 = AXIS2_PLACEMENT_3D ( 'NONE', #84, #181, #73 ) ;
#11 = AXIS2_PLACEMENT_3D ( 'NONE', #141, #147, #149 ) ;
#12 = AXIS2_PLACEMENT_3D ( 'NONE', #96, #89, #92 ) ;
#13 = AXIS2_PLACEMENT_3D ( 'NONE', #176, #65, #172 ) ;
#14 = AXIS2_PLACEMENT_3D ( 'NONE', #177, #123, #179 ) ;
#15 = AXIS2_PLACEMENT_3D ( 'NONE', #122, #142, #117 ) ;
#16 = AXIS2_PLACEMENT_3D ( 'NONE', #196, #188, #115 ) ;
#17 = AXIS2_PLACEMENT_3D ( 'NONE', #185, #189, #190 ) ;
#18 = EDGE_CURVE ( 'NONE', #167, #155, #310, .T. ) ;
#19 = EDGE_CURVE ( 'NONE', #103, #81, #256, .T. ) ;
#20 = AXIS2_PLACEMENT_3D ( 'NONE', #125, #178, #139 ) ;
#21 = EDGE_CURVE ( 'NONE', #81, #78, #255, .T. ) ;
#22 = EDGE_CURVE ( 'NONE', #167, #82, #252, .T. ) ;
#23 = EDGE_CURVE ( 'NONE', #100, #145, #277, .T. ) ;
#24 = EDGE_CURVE ( 'NONE', #75, #78, #276, .T. ) ;
#25 = EDGE_CURVE ( 'NONE', #78, #81, #320, .T. ) ;
#26 = CC_DESIGN_APPROVAL ( #32, ( #43 ) ) ;
#27 = CC_DESIGN_SECURITY_CLASSIFICATION ( #38, ( #42 ) ) ;
#28 = CC_DESIGN_PERSON_AND_ORGANIZATION_ASSIGNMENT ( #213, #112, ( #197 ) ) ;
#29 = PRODUCT_RELATED_PRODUCT_CATEGORY ( 'detail', '', ( #197 ) ) ;
#30 = CC_DESIGN_PERSON_AND_ORGANIZATION_ASSIGNMENT ( #202, #66, ( #43 ) ) ;
#31 = CC_DESIGN_APPROVAL ( #34, ( #38 ) ) ;
#32 = APPROVAL ( #98, 'UNSPECIFIED' ) ;
#33 = CC_DESIGN_DATE_AND_TIME_ASSIGNMENT ( #205, #193, ( #38 ) ) ;
#34 = APPROVAL ( #102, 'UNSPECIFIED' ) ;
#35 = CC_DESIGN_DATE_AND_TIME_ASSIGNMENT ( #222, #93, ( #43 ) ) ;
#36 = CC_DESIGN_PERSON_AND_ORGANIZATION_ASSIGNMENT ( #282, #97, ( #38 ) ) ;
#37 = CC_DESIGN_PERSON_AND_ORGANIZATION_ASSIGNMENT ( #280, #80, ( #42 ) ) ;
#38 = SECURITY_CLASSIFICATION ( '', '', #87 ) ;
#39 = CC_DESIGN_PERSON_AND_ORGANIZATION_ASSIGNMENT ( #279, #83, ( #42 ) ) ;
#40 = APPROVAL ( #90, 'UNSPECIFIED' ) ;
#41 = CC_DESIGN_APPROVAL ( #40, ( #42 ) ) ;
#42 = PRODUCT_DEFINITION_FORMATION_WITH_SPECIFIED_SOURCE ( 'ANY', '', #197, .NOT_KNOWN. ) ;
#43 = PRODUCT_DEFINITION ( 'UNKNOWN', '', #42, #59 ) ;
#44 = AXIS2_PLACEMENT_3D ( 'NONE', #104, #64, #63 ) ;
#45 = AXIS2_PLACEMENT_3D ( 'NONE', #95, #109, #68 ) ;
#46 = AXIS2_PLACEMENT_3D ( 'NONE', #76, #91, #88 ) ;
#47 = AXIS2_PLACEMENT_3D ( 'NONE', #107, #110, #105 ) ;
#48 = AXIS2_PLACEMENT_3D ( 'NONE', #94, #69, #194 ) ;
#49 = AXIS2_PLACEMENT_3D ( 'NONE', #61, #174, #108 ) ;
#50 = ADVANCED_FACE ( 'NONE', ( #308 ), #319, .F. ) ;
#51 = ADVANCED_FACE ( 'NONE', ( #304 ), #312, .T. ) ;
#52 = ADVANCED_FACE ( 'NONE', ( #327 ), #332, .F. ) ;
#53 = ADVANCED_FACE ( 'NONE', ( #321 ), #278, .T. ) ;
#54 = ADVANCED_FACE ( 'NONE', ( #247, #329 ), #164, .F. ) ;
#55 = ADVANCED_FACE ( 'NONE', ( #328, #326 ), #165, .F. ) ;
#56 = ADVANCED_FACE ( 'NONE', ( #231 ), #331, .T. ) ;
#57 = ADVANCED_FACE ( 'NONE', ( #294 ), #243, .T. ) ;
#58 = PRODUCT_DEFINITION_SHAPE ( 'NONE', 'NONE',  #43 ) ;
#59 = DESIGN_CONTEXT ( 'detailed design', #62, 'design' ) ;
#60 = DIRECTION ( 'NONE',  ( 0.0000000000000000000, -1.000000000000000000, 0.0000000000000000000 ) ) ;
#61 = CARTESIAN_POINT ( 'NONE',  ( 0.0000000000000000000, 0.0000000000000000000, 0.0000000000000000000 ) ) ;
#62 = APPLICATION_CONTEXT ( 'configuration controlled 3d designs of mechanical parts and assemblies' ) ;
#63 = DIRECTION ( 'NONE',  ( 0.0000000000000000000, 0.0000000000000000000, -1.000000000000000000 ) ) ;
#64 = DIRECTION ( 'NONE',  ( 1.000000000000000000, 0.0000000000000000000, 0.0000000000000000000 ) ) ;
#65 = DIRECTION ( 'NONE',  ( -1.000000000000000000, -0.0000000000000000000, -0.0000000000000000000 ) ) ;
#66 = PERSON_AND_ORGANIZATION_ROLE ( 'creator' ) ;
#67 = APPLICATION_CONTEXT ( 'configuration controlled 3d designs of mechanical parts and assemblies' ) ;
#68 = DIRECTION ( 'NONE',  ( 0.0000000000000000000, 0.0000000000000000000, 1.000000000000000000 ) ) ;
#69 = DIRECTION ( 'NONE',  ( -1.000000000000000000, -0.0000000000000000000, -0.0000000000000000000 ) ) ;
#70 = DIRECTION ( 'NONE',  ( 0.0000000000000000000, 0.0000000000000000000, 1.000000000000000000 ) ) ;
#71 = APPLICATION_PROTOCOL_DEFINITION ( 'international standard', 'config_control_design', 1994, #67 ) ;
#72 =( LENGTH_UNIT ( ) NAMED_UNIT ( * ) SI_UNIT ( .MILLI., .METRE. ) );
#73 = DIRECTION ( 'NONE',  ( 0.0000000000000000000, 0.0000000000000000000, 1.000000000000000000 ) ) ;
#74 = VERTEX_POINT ( 'NONE', #146 ) ;
#75 = VERTEX_POINT ( 'NONE', #150 ) ;
#76 = CARTESIAN_POINT ( 'NONE',  ( -14.80000000000000100, 0.0000000000000000000, 0.0000000000000000000 ) ) ;
#77 = CARTESIAN_POINT ( 'NONE',  ( -68.33153641321104000, 1.224646799147353500E-015, -10.00000000000000200 ) ) ;
#78 = VERTEX_POINT ( 'NONE', #156 ) ;
#79 = MECHANICAL_CONTEXT ( 'NONE', #67, 'mechanical' ) ;
#80 = PERSON_AND_ORGANIZATION_ROLE ( 'design_supplier' ) ;
#81 = VERTEX_POINT ( 'NONE', #151 ) ;
#82 = VERTEX_POINT ( 'NONE', #152 ) ;
#83 = PERSON_AND_ORGANIZATION_ROLE ( 'creator' ) ;
#84 = CARTESIAN_POINT ( 'NONE',  ( -68.33153641321104000, 0.0000000000000000000, 0.0000000000000000000 ) ) ;
#85 = APPROVAL_ROLE ( '' ) ;
#86 = VERTEX_POINT ( 'NONE', #138 ) ;
#87 = SECURITY_CLASSIFICATION_LEVEL ( 'unclassified' ) ;
#88 = DIRECTION ( 'NONE',  ( 0.0000000000000000000, 0.0000000000000000000, -1.000000000000000000 ) ) ;
#89 = DIRECTION ( 'NONE',  ( -1.000000000000000000, -0.0000000000000000000, -0.0000000000000000000 ) ) ;
#90 = APPROVAL_STATUS ( 'not_yet_approved' ) ;
#91 = DIRECTION ( 'NONE',  ( 1.000000000000000000, 0.0000000000000000000, 0.0000000000000000000 ) ) ;
#92 = DIRECTION ( 'NONE',  ( 0.0000000000000000000, 0.0000000000000000000, 1.000000000000000000 ) ) ;
#93 = DATE_TIME_ROLE ( 'creation_date' ) ;
#94 = CARTESIAN_POINT ( 'NONE',  ( -15.00000000000000200, 0.0000000000000000000, 0.0000000000000000000 ) ) ;
#95 = CARTESIAN_POINT ( 'NONE',  ( 14.99999999999999800, 0.0000000000000000000, 0.0000000000000000000 ) ) ;
#96 = CARTESIAN_POINT ( 'NONE',  ( -15.00000000000000000, 0.0000000000000000000, 0.0000000000000000000 ) ) ;
#97 = PERSON_AND_ORGANIZATION_ROLE ( 'classification_officer' ) ;
#98 = APPROVAL_STATUS ( 'not_yet_approved' ) ;
#99 = DIRECTION ( 'NONE',  ( 0.0000000000000000000, 0.0000000000000000000, -1.000000000000000000 ) ) ;
#100 = VERTEX_POINT ( 'NONE', #137 ) ;
#101 =( NAMED_UNIT ( * ) SI_UNIT ( $, .STERADIAN. ) SOLID_ANGLE_UNIT ( ) );
#102 = APPROVAL_STATUS ( 'not_yet_approved' ) ;
#103 = VERTEX_POINT ( 'NONE', #136 ) ;
#104 = CARTESIAN_POINT ( 'NONE',  ( -14.80000000000000100, 0.0000000000000000000, 0.0000000000000000000 ) ) ;
#105 = DIRECTION ( 'NONE',  ( 0.0000000000000000000, 0.0000000000000000000, 1.000000000000000000 ) ) ;
#106 =( NAMED_UNIT ( * ) PLANE_ANGLE_UNIT ( ) SI_UNIT ( $, .RADIAN. ) );
#107 = CARTESIAN_POINT ( 'NONE',  ( 15.00000000000000000, 0.0000000000000000000, 0.0000000000000000000 ) ) ;
#108 = DIRECTION ( 'NONE',  ( 1.000000000000000000, 0.0000000000000000000, 0.0000000000000000000 ) ) ;
#109 = DIRECTION ( 'NONE',  ( 1.000000000000000000, 0.0000000000000000000, 0.0000000000000000000 ) ) ;
#110 = DIRECTION ( 'NONE',  ( -1.000000000000000000, -0.0000000000000000000, -0.0000000000000000000 ) ) ;
#111 = APPROVAL_ROLE ( '' ) ;
#112 = PERSON_AND_ORGANIZATION_ROLE ( 'design_owner' ) ;
#113 = DIRECTION ( 'NONE',  ( -1.000000000000000000, -0.0000000000000000000, -0.0000000000000000000 ) ) ;
#114 = APPLICATION_PROTOCOL_DEFINITION ( 'international standard', 'config_control_design', 1994, #62 ) ;
#115 = DIRECTION ( 'NONE',  ( 0.0000000000000000000, 0.0000000000000000000, -1.000000000000000000 ) ) ;
#116 = DIRECTION ( 'NONE',  ( 0.0000000000000000000, 0.0000000000000000000, 1.000000000000000000 ) ) ;
#117 = DIRECTION ( 'NONE',  ( 0.0000000000000000000, 0.0000000000000000000, -1.000000000000000000 ) ) ;
#118 = DIRECTION ( 'NONE',  ( 0.0000000000000000000, 0.0000000000000000000, 1.000000000000000000 ) ) ;
#119 = DIRECTION ( 'NONE',  ( 1.000000000000000000, 0.0000000000000000000, 0.0000000000000000000 ) ) ;
#120 = DIRECTION ( 'NONE',  ( -1.000000000000000000, -0.0000000000000000000, -0.0000000000000000000 ) ) ;
#121 = DIRECTION ( 'NONE',  ( 0.0000000000000000000, 1.000000000000000000, -1.224646799147353200E-016 ) ) ;
#122 = CARTESIAN_POINT ( 'NONE',  ( 14.79999999999999400, 0.0000000000000000000, 13.80000000000000100 ) ) ;
#123 = DIRECTION ( 'NONE',  ( -1.000000000000000000, -0.0000000000000000000, -0.0000000000000000000 ) ) ;
#124 = DIRECTION ( 'NONE',  ( -1.000000000000000000, -0.0000000000000000000, -0.0000000000000000000 ) ) ;
#125 = CARTESIAN_POINT ( 'NONE',  ( 14.79999999999999400, 1.690012582823347500E-015, -13.80000000000000100 ) ) ;
#126 = DIRECTION ( 'NONE',  ( -1.000000000000000000, -0.0000000000000000000, -0.0000000000000000000 ) ) ;
#127 = DIRECTION ( 'NONE',  ( -1.000000000000000000, -0.0000000000000000000, -0.0000000000000000000 ) ) ;
#128 = CARTESIAN_POINT ( 'NONE',  ( -68.33153641321104000, 0.0000000000000000000, 10.00000000000000200 ) ) ;
#129 = CARTESIAN_POINT ( 'NONE',  ( -14.80000000000000100, 1.714505518806294800E-015, -14.00000000000000200 ) ) ;
#130 = CARTESIAN_POINT ( 'NONE',  ( -15.00000000000000000, 1.224646799147353300E-015, -10.00000000000000000 ) ) ;
#131 = DIRECTION ( 'NONE',  ( 1.000000000000000000, 0.0000000000000000000, 0.0000000000000000000 ) ) ;
#132 = CARTESIAN_POINT ( 'NONE',  ( 15.00000000000000000, 1.224646799147353700E-015, -10.00000000000000400 ) ) ;
#133 = CARTESIAN_POINT ( 'NONE',  ( -68.33153641321104000, 0.0000000000000000000, 0.0000000000000000000 ) ) ;
#134 = DIRECTION ( 'NONE',  ( 0.0000000000000000000, 0.0000000000000000000, 1.000000000000000000 ) ) ;
#135 = DIRECTION ( 'NONE',  ( -1.000000000000000000, -0.0000000000000000000, -0.0000000000000000000 ) ) ;
#136 = CARTESIAN_POINT ( 'NONE',  ( 14.99999999999999800, 1.702259050814821300E-015, -13.80000000000000100 ) ) ;
#137 = CARTESIAN_POINT ( 'NONE',  ( -15.00000000000000200, 0.0000000000000000000, -13.80000000000000100 ) ) ;
#138 = CARTESIAN_POINT ( 'NONE',  ( -14.80000000000000100, 0.0000000000000000000, 14.00000000000000200 ) ) ;
#139 = DIRECTION ( 'NONE',  ( 0.0000000000000000000, -1.224646799147353200E-016, 1.000000000000000000 ) ) ;
#140 = DIRECTION ( 'NONE',  ( -0.0000000000000000000, 0.0000000000000000000, 1.000000000000000000 ) ) ;
#141 = CARTESIAN_POINT ( 'NONE',  ( 14.79999999999999400, 0.0000000000000000000, 0.0000000000000000000 ) ) ;
#142 = DIRECTION ( 'NONE',  ( 0.0000000000000000000, -1.000000000000000000, 0.0000000000000000000 ) ) ;
#143 = DIRECTION ( 'NONE',  ( 0.0000000000000000000, 0.0000000000000000000, -1.000000000000000000 ) ) ;
#144 = CARTESIAN_POINT ( 'NONE',  ( -15.00000000000000200, 1.702259050814821300E-015, 13.80000000000000100 ) ) ;
#145 = VERTEX_POINT ( 'NONE', #144 ) ;
#146 = CARTESIAN_POINT ( 'NONE',  ( -15.00000000000000000, 0.0000000000000000000, 10.00000000000000000 ) ) ;
#147 = DIRECTION ( 'NONE',  ( -1.000000000000000000, -0.0000000000000000000, -0.0000000000000000000 ) ) ;
#148 = DIRECTION ( 'NONE',  ( -1.000000000000000000, -0.0000000000000000000, -0.0000000000000000000 ) ) ;
#149 = DIRECTION ( 'NONE',  ( 0.0000000000000000000, 0.0000000000000000000, 1.000000000000000000 ) ) ;
#150 = CARTESIAN_POINT ( 'NONE',  ( 14.99999999999999800, 0.0000000000000000000, 13.80000000000000100 ) ) ;
#151 = CARTESIAN_POINT ( 'NONE',  ( 14.79999999999999400, 1.714505518806294800E-015, -14.00000000000000200 ) ) ;
#152 = CARTESIAN_POINT ( 'NONE',  ( 15.00000000000000000, 0.0000000000000000000, 10.00000000000000400 ) ) ;
#153 = VERTEX_POINT ( 'NONE', #129 ) ;
#154 = DIRECTION ( 'NONE',  ( -1.000000000000000000, -0.0000000000000000000, -0.0000000000000000000 ) ) ;
#155 = VERTEX_POINT ( 'NONE', #130 ) ;
#156 = CARTESIAN_POINT ( 'NONE',  ( 14.79999999999999400, 0.0000000000000000000, 14.00000000000000200 ) ) ;
#157 = CARTESIAN_POINT ( 'NONE',  ( -14.80000000000000100, 0.0000000000000000000, 0.0000000000000000000 ) ) ;
#158 = CARTESIAN_POINT ( 'NONE',  ( -14.80000000000000100, 0.0000000000000000000, -13.80000000000000100 ) ) ;
#159 = DIRECTION ( 'NONE',  ( 0.0000000000000000000, 0.0000000000000000000, -1.000000000000000000 ) ) ;
#160 = CARTESIAN_POINT ( 'NONE',  ( 14.79999999999999400, 0.0000000000000000000, 0.0000000000000000000 ) ) ;
#161 = DIRECTION ( 'NONE',  ( 1.000000000000000000, 0.0000000000000000000, 0.0000000000000000000 ) ) ;
#162 = DIRECTION ( 'NONE',  ( 1.000000000000000000, 0.0000000000000000000, 0.0000000000000000000 ) ) ;
#163 = DIRECTION ( 'NONE',  ( -1.000000000000000000, 0.0000000000000000000, -0.0000000000000000000 ) ) ;
#164 = PLANE ( 'NONE',  #6 ) ;
#165 = PLANE ( 'NONE',  #5 ) ;
#166 = CARTESIAN_POINT ( 'NONE',  ( -68.33153641321104000, 0.0000000000000000000, 0.0000000000000000000 ) ) ;
#167 = VERTEX_POINT ( 'NONE', #132 ) ;
#168 = CARTESIAN_POINT ( 'NONE',  ( -68.33153641321104000, 0.0000000000000000000, 0.0000000000000000000 ) ) ;
#169 = DIRECTION ( 'NONE',  ( -1.000000000000000000, -0.0000000000000000000, -0.0000000000000000000 ) ) ;
#170 = CARTESIAN_POINT ( 'NONE',  ( 14.99999999999999800, 14.00000000000000400, 0.0000000000000000000 ) ) ;
#171 = CARTESIAN_POINT ( 'NONE',  ( -15.00000000000000200, 10.00000000000000000, 0.0000000000000000000 ) ) ;
#172 = DIRECTION ( 'NONE',  ( 0.0000000000000000000, 0.0000000000000000000, 1.000000000000000000 ) ) ;
#173 = DIRECTION ( 'NONE',  ( 0.0000000000000000000, 0.0000000000000000000, 1.000000000000000000 ) ) ;
#174 = DIRECTION ( 'NONE',  ( 0.0000000000000000000, 0.0000000000000000000, 1.000000000000000000 ) ) ;
#175 = DIRECTION ( 'NONE',  ( 0.0000000000000000000, 0.0000000000000000000, 1.000000000000000000 ) ) ;
#176 = CARTESIAN_POINT ( 'NONE',  ( 14.79999999999999400, 0.0000000000000000000, 0.0000000000000000000 ) ) ;
#177 = CARTESIAN_POINT ( 'NONE',  ( 14.79999999999999400, 0.0000000000000000000, 0.0000000000000000000 ) ) ;
#178 = DIRECTION ( 'NONE',  ( -0.0000000000000000000, 1.000000000000000000, 1.224646799147353200E-016 ) ) ;
#179 = DIRECTION ( 'NONE',  ( 0.0000000000000000000, 0.0000000000000000000, 1.000000000000000000 ) ) ;
#180 = CARTESIAN_POINT ( 'NONE',  ( 15.00000000000000000, 0.0000000000000000000, 0.0000000000000000000 ) ) ;
#181 = DIRECTION ( 'NONE',  ( -1.000000000000000000, -0.0000000000000000000, -0.0000000000000000000 ) ) ;
#182 = DIRECTION ( 'NONE',  ( 0.0000000000000000000, 1.224646799147353200E-016, 1.000000000000000000 ) ) ;
#183 = CARTESIAN_POINT ( 'NONE',  ( 14.99999999999999800, 0.0000000000000000000, 0.0000000000000000000 ) ) ;
#184 = CARTESIAN_POINT ( 'NONE',  ( -14.80000000000000100, 0.0000000000000000000, 0.0000000000000000000 ) ) ;
#185 = CARTESIAN_POINT ( 'NONE',  ( -15.00000000000000000, 0.0000000000000000000, 0.0000000000000000000 ) ) ;
#186 = CARTESIAN_POINT ( 'NONE',  ( -68.33153641321104000, 0.0000000000000000000, 14.00000000000000200 ) ) ;
#187 = DIRECTION ( 'NONE',  ( 0.0000000000000000000, 0.0000000000000000000, -1.000000000000000000 ) ) ;
#188 = DIRECTION ( 'NONE',  ( -1.000000000000000000, -0.0000000000000000000, -0.0000000000000000000 ) ) ;
#189 = DIRECTION ( 'NONE',  ( -1.000000000000000000, -0.0000000000000000000, -0.0000000000000000000 ) ) ;
#190 = DIRECTION ( 'NONE',  ( 0.0000000000000000000, 0.0000000000000000000, 1.000000000000000000 ) ) ;
#191 = CARTESIAN_POINT ( 'NONE',  ( -68.33153641321104000, 1.714505518806294800E-015, -14.00000000000000200 ) ) ;
#192 = CARTESIAN_POINT ( 'NONE',  ( -14.80000000000000100, 1.690012582823347500E-015, 13.80000000000000100 ) ) ;
#193 = DATE_TIME_ROLE ( 'classification_date' ) ;
#194 = DIRECTION ( 'NONE',  ( 0.0000000000000000000, 0.0000000000000000000, -1.000000000000000000 ) ) ;
#195 = APPROVAL_ROLE ( '' ) ;
#196 = CARTESIAN_POINT ( 'NONE',  ( -15.00000000000000200, 0.0000000000000000000, 0.0000000000000000000 ) ) ;
#197 = PRODUCT ( 'KH-2030', 'KH-2030', '', ( #79 ) ) ;
#198 = PERSON ( 'UNSPECIFIED', 'UNSPECIFIED', 'UNSPECIFIED', ('UNSPECIFIED'), ('UNSPECIFIED'), ('UNSPECIFIED') ) ;
#199 = APPROVAL_PERSON_ORGANIZATION ( #318, #34, #85 ) ;
#200 = COORDINATED_UNIVERSAL_TIME_OFFSET ( 2, 0, .AHEAD. ) ;
#201 = LOCAL_TIME ( 12, 15, 32.00000000000000000, #200 ) ;
#202 = PERSON_AND_ORGANIZATION ( #198, #214 ) ;
#203 = APPROVAL_DATE_TIME ( #204, #32 ) ;
#204 = DATE_AND_TIME ( #206, #207 ) ;
#205 = DATE_AND_TIME ( #286, #285 ) ;
#206 = CALENDAR_DATE ( 2014, 8, 8 ) ;
#207 = LOCAL_TIME ( 12, 15, 32.00000000000000000, #208 ) ;
#208 = COORDINATED_UNIVERSAL_TIME_OFFSET ( 2, 0, .AHEAD. ) ;
#209 = CIRCLE ( 'NONE', #48, 13.80000000000000100 ) ;
#210 = APPROVAL_PERSON_ORGANIZATION ( #211, #32, #195 ) ;
#211 = PERSON_AND_ORGANIZATION ( #198, #214 ) ;
#212 = ORIENTED_EDGE ( 'NONE', *, *, #339, .T. ) ;
#213 = PERSON_AND_ORGANIZATION ( #198, #214 ) ;
#214 = ORGANIZATION ( 'UNSPECIFIED', 'UNSPECIFIED', '' ) ;
#215 = SHAPE_DEFINITION_REPRESENTATION ( #58, #333 ) ;
#216 =( GEOMETRIC_REPRESENTATION_CONTEXT ( 3 ) GLOBAL_UNCERTAINTY_ASSIGNED_CONTEXT ( ( #334 ) ) GLOBAL_UNIT_ASSIGNED_CONTEXT ( ( #72, #106, #101 ) ) REPRESENTATION_CONTEXT ( 'NONE', 'WORKASPACE' ) );
#217 = LOCAL_TIME ( 12, 15, 32.00000000000000000, #307 ) ;
#218 = CIRCLE ( 'NONE', #47, 10.00000000000000400 ) ;
#219 = CIRCLE ( 'NONE', #44, 14.00000000000000200 ) ;
#220 = CIRCLE ( 'NONE', #45, 13.80000000000000100 ) ;
#221 = PERSON_AND_ORGANIZATION ( #198, #214 ) ;
#222 = DATE_AND_TIME ( #223, #201 ) ;
#223 = CALENDAR_DATE ( 2014, 8, 8 ) ;
#224 = LOCAL_TIME ( 12, 15, 32.00000000000000000, #226 ) ;
#225 = ORIENTED_EDGE ( 'NONE', *, *, #25, .F. ) ;
#226 = COORDINATED_UNIVERSAL_TIME_OFFSET ( 2, 0, .AHEAD. ) ;
#227 = APPROVAL_PERSON_ORGANIZATION ( #221, #40, #111 ) ;
#228 = APPROVAL_DATE_TIME ( #229, #40 ) ;
#229 = DATE_AND_TIME ( #230, #224 ) ;
#230 = CALENDAR_DATE ( 2014, 8, 8 ) ;
#231 = FACE_OUTER_BOUND ( 'NONE', #300, .T. ) ;
#232 = CIRCLE ( 'NONE', #3, 0.2000000000000005100 ) ;
#233 = CIRCLE ( 'NONE', #1, 13.80000000000000100 ) ;
#234 = ORIENTED_EDGE ( 'NONE', *, *, #22, .F. ) ;
#235 = LINE ( 'NONE', #186, #240 ) ;
#236 = ORIENTED_EDGE ( 'NONE', *, *, #18, .F. ) ;
#237 = ORIENTED_EDGE ( 'NONE', *, *, #353, .T. ) ;
#238 = VECTOR ( 'NONE', #120, 1000.000000000000000 ) ;
#239 = LINE ( 'NONE', #191, #238 ) ;
#240 = VECTOR ( 'NONE', #113, 1000.000000000000000 ) ;
#241 = LINE ( 'NONE', #128, #242 ) ;
#242 = VECTOR ( 'NONE', #127, 1000.000000000000000 ) ;
#243 = TOROIDAL_SURFACE ( 'NONE', #11, 13.80000000000000100, 0.2000000000000000100 ) ;
#244 = DATE_AND_TIME ( #271, #217 ) ;
#245 = ORIENTED_EDGE ( 'NONE', *, *, #25, .T. ) ;
#246 = CLOSED_SHELL ( 'NONE', ( #57, #337, #50, #336, #53, #55, #52, #54, #56, #51 ) ) ;
#247 = FACE_OUTER_BOUND ( 'NONE', #263, .T. ) ;
#248 = EDGE_LOOP ( 'NONE', ( #316, #293, #257, #259 ) ) ;
#249 = EDGE_LOOP ( 'NONE', ( #258, #254, #225, #289 ) ) ;
#250 = EDGE_LOOP ( 'NONE', ( #251, #299, #297, #281 ) ) ;
#251 = ORIENTED_EDGE ( 'NONE', *, *, #19, .F. ) ;
#252 = CIRCLE ( 'NONE', #342, 10.00000000000000400 ) ;
#253 = ORIENTED_EDGE ( 'NONE', *, *, #340, .F. ) ;
#254 = ORIENTED_EDGE ( 'NONE', *, *, #19, .T. ) ;
#255 = CIRCLE ( 'NONE', #352, 14.00000000000000200 ) ;
#256 = CIRCLE ( 'NONE', #20, 0.2000000000000005100 ) ;
#257 = ORIENTED_EDGE ( 'NONE', *, *, #351, .F. ) ;
#258 = ORIENTED_EDGE ( 'NONE', *, *, #343, .F. ) ;
#259 = ORIENTED_EDGE ( 'NONE', *, *, #346, .F. ) ;
#260 = ORIENTED_EDGE ( 'NONE', *, *, #344, .T. ) ;
#261 = ORIENTED_EDGE ( 'NONE', *, *, #21, .T. ) ;
#262 = EDGE_LOOP ( 'NONE', ( #237, #269 ) ) ;
#263 = EDGE_LOOP ( 'NONE', ( #275, #290 ) ) ;
#264 = EDGE_LOOP ( 'NONE', ( #272, #305 ) ) ;
#265 = EDGE_LOOP ( 'NONE', ( #309, #287 ) ) ;
#266 = APPROVAL_DATE_TIME ( #244, #34 ) ;
#267 = EDGE_LOOP ( 'NONE', ( #245, #273, #274, #324 ) ) ;
#268 = EDGE_LOOP ( 'NONE', ( #234, #292, #314, #298 ) ) ;
#269 = ORIENTED_EDGE ( 'NONE', *, *, #22, .T. ) ;
#270 = CIRCLE ( 'NONE', #46, 14.00000000000000200 ) ;
#271 = CALENDAR_DATE ( 2014, 8, 8 ) ;
#272 = ORIENTED_EDGE ( 'NONE', *, *, #350, .T. ) ;
#273 = ORIENTED_EDGE ( 'NONE', *, *, #341, .T. ) ;
#274 = ORIENTED_EDGE ( 'NONE', *, *, #351, .T. ) ;
#275 = ORIENTED_EDGE ( 'NONE', *, *, #23, .T. ) ;
#276 = CIRCLE ( 'NONE', #15, 0.2000000000000005100 ) ;
#277 = CIRCLE ( 'NONE', #16, 13.80000000000000100 ) ;
#278 = CYLINDRICAL_SURFACE ( 'NONE', #7, 14.00000000000000200 ) ;
#279 = PERSON_AND_ORGANIZATION ( #198, #214 ) ;
#280 = PERSON_AND_ORGANIZATION ( #198, #214 ) ;
#281 = ORIENTED_EDGE ( 'NONE', *, *, #21, .F. ) ;
#282 = PERSON_AND_ORGANIZATION ( #198, #214 ) ;
#283 = COORDINATED_UNIVERSAL_TIME_OFFSET ( 2, 0, .AHEAD. ) ;
#284 = ORIENTED_EDGE ( 'NONE', *, *, #341, .F. ) ;
#285 = LOCAL_TIME ( 12, 15, 32.00000000000000000, #283 ) ;
#286 = CALENDAR_DATE ( 2014, 8, 8 ) ;
#287 = ORIENTED_EDGE ( 'NONE', *, *, #338, .F. ) ;
#288 = ORIENTED_EDGE ( 'NONE', *, *, #23, .F. ) ;
#289 = ORIENTED_EDGE ( 'NONE', *, *, #24, .F. ) ;
#290 = ORIENTED_EDGE ( 'NONE', *, *, #349, .T. ) ;
#291 = ORIENTED_EDGE ( 'NONE', *, *, #348, .F. ) ;
#292 = ORIENTED_EDGE ( 'NONE', *, *, #18, .T. ) ;
#293 = ORIENTED_EDGE ( 'NONE', *, *, #340, .T. ) ;
#294 = FACE_OUTER_BOUND ( 'NONE', #249, .T. ) ;
#295 = CIRCLE ( 'NONE', #2, 0.2000000000000005100 ) ;
#296 = FACE_OUTER_BOUND ( 'NONE', #248, .T. ) ;
#297 = ORIENTED_EDGE ( 'NONE', *, *, #24, .T. ) ;
#298 = ORIENTED_EDGE ( 'NONE', *, *, #339, .F. ) ;
#299 = ORIENTED_EDGE ( 'NONE', *, *, #350, .F. ) ;
#300 = EDGE_LOOP ( 'NONE', ( #253, #288, #306, #291 ) ) ;
#301 = ORIENTED_EDGE ( 'NONE', *, *, #347, .T. ) ;
#302 = EDGE_LOOP ( 'NONE', ( #284, #261, #260, #313 ) ) ;
#303 = EDGE_LOOP ( 'NONE', ( #236, #315, #212, #301 ) ) ;
#304 = FACE_OUTER_BOUND ( 'NONE', #250, .T. ) ;
#305 = ORIENTED_EDGE ( 'NONE', *, *, #343, .T. ) ;
#306 = ORIENTED_EDGE ( 'NONE', *, *, #346, .T. ) ;
#307 = COORDINATED_UNIVERSAL_TIME_OFFSET ( 2, 0, .AHEAD. ) ;
#308 = FACE_OUTER_BOUND ( 'NONE', #268, .T. ) ;
#309 = ORIENTED_EDGE ( 'NONE', *, *, #347, .F. ) ;
#310 = LINE ( 'NONE', #77, #311 ) ;
#311 = VECTOR ( 'NONE', #126, 1000.000000000000000 ) ;
#312 = TOROIDAL_SURFACE ( 'NONE', #13, 13.80000000000000100, 0.2000000000000000100 ) ;
#313 = ORIENTED_EDGE ( 'NONE', *, *, #348, .T. ) ;
#314 = ORIENTED_EDGE ( 'NONE', *, *, #338, .T. ) ;
#315 = ORIENTED_EDGE ( 'NONE', *, *, #353, .F. ) ;
#316 = ORIENTED_EDGE ( 'NONE', *, *, #349, .F. ) ;
#317 = CIRCLE ( 'NONE', #17, 10.00000000000000000 ) ;
#318 = PERSON_AND_ORGANIZATION ( #198, #214 ) ;
#319 = CYLINDRICAL_SURFACE ( 'NONE', #10, 10.00000000000000200 ) ;
#320 = CIRCLE ( 'NONE', #14, 14.00000000000000200 ) ;
#321 = FACE_OUTER_BOUND ( 'NONE', #302, .T. ) ;
#322 = FACE_OUTER_BOUND ( 'NONE', #267, .T. ) ;
#323 = CIRCLE ( 'NONE', #12, 10.00000000000000000 ) ;
#324 = ORIENTED_EDGE ( 'NONE', *, *, #344, .F. ) ;
#325 = CYLINDRICAL_SURFACE ( 'NONE', #4, 14.00000000000000200 ) ;
#326 = FACE_BOUND ( 'NONE', #262, .T. ) ;
#327 = FACE_OUTER_BOUND ( 'NONE', #303, .T. ) ;
#328 = FACE_OUTER_BOUND ( 'NONE', #264, .T. ) ;
#329 = FACE_BOUND ( 'NONE', #265, .T. ) ;
#330 = TOROIDAL_SURFACE ( 'NONE', #345, 13.80000000000000100, 0.2000000000000000100 ) ;
#331 = TOROIDAL_SURFACE ( 'NONE', #9, 13.80000000000000100, 0.2000000000000000100 ) ;
#332 = CYLINDRICAL_SURFACE ( 'NONE', #8, 10.00000000000000200 ) ;
#333 = ADVANCED_BREP_SHAPE_REPRESENTATION ( 'KH-2030', ( #335, #49 ), #216 ) ;
#334 = UNCERTAINTY_MEASURE_WITH_UNIT (LENGTH_MEASURE( 1.000000000000000100E-005 ), #72, 'distance_accuracy_value', 'NONE');
#335 = MANIFOLD_SOLID_BREP ( 'Fillet1', #246 ) ;
#336 = ADVANCED_FACE ( 'NONE', ( #322 ), #325, .T. ) ;
#337 = ADVANCED_FACE ( 'NONE', ( #296 ), #330, .T. ) ;
#338 = EDGE_CURVE ( 'NONE', #155, #74, #317, .T. ) ;
#339 = EDGE_CURVE ( 'NONE', #82, #74, #241, .T. ) ;
#340 = EDGE_CURVE ( 'NONE', #145, #86, #232, .T. ) ;
#341 = EDGE_CURVE ( 'NONE', #81, #153, #239, .T. ) ;
#342 = AXIS2_PLACEMENT_3D ( 'NONE', #180, #154, #70 ) ;
#343 = EDGE_CURVE ( 'NONE', #103, #75, #233, .T. ) ;
#344 = EDGE_CURVE ( 'NONE', #78, #86, #235, .T. ) ;
#345 = AXIS2_PLACEMENT_3D ( 'NONE', #184, #131, #187 ) ;
#346 = EDGE_CURVE ( 'NONE', #100, #153, #295, .T. ) ;
#347 = EDGE_CURVE ( 'NONE', #74, #155, #323, .T. ) ;
#348 = EDGE_CURVE ( 'NONE', #86, #153, #270, .T. ) ;
#349 = EDGE_CURVE ( 'NONE', #145, #100, #209, .T. ) ;
#350 = EDGE_CURVE ( 'NONE', #75, #103, #220, .T. ) ;
#351 = EDGE_CURVE ( 'NONE', #153, #86, #219, .T. ) ;
#352 = AXIS2_PLACEMENT_3D ( 'NONE', #160, #148, #116 ) ;
#353 = EDGE_CURVE ( 'NONE', #82, #167, #218, .T. ) ;
ENDSEC;
END-ISO-10303-21;
