ISO-10303-21;
HEADER;
FILE_DESCRIPTION (( 'STEP AP203' ),
    '1' );
FILE_NAME ('KH-1630.STEP',
    '2014-08-08T09:14:41',
    ( 'Ovidiu Buiga' ),
    ( '' ),
    'SwSTEP 2.0',
    'SolidWorks 2010',
    '' );
FILE_SCHEMA (( 'CONFIG_CONTROL_DESIGN' ));
ENDSEC;

DATA;
#1 = AXIS2_PLACEMENT_3D ( 'NONE', #107, #110, #183 ) ;
#2 = AXIS2_PLACEMENT_3D ( 'NONE', #192, #115, #177 ) ;
#3 = AXIS2_PLACEMENT_3D ( 'NONE', #67, #176, #72 ) ;
#4 = AXIS2_PLACEMENT_3D ( 'NONE', #119, #106, #112 ) ;
#5 = EDGE_CURVE ( 'NONE', #117, #68, #240, .T. ) ;
#6 = AXIS2_PLACEMENT_3D ( 'NONE', #103, #101, #99 ) ;
#7 = AXIS2_PLACEMENT_3D ( 'NONE', #89, #85, #81 ) ;
#8 = EDGE_CURVE ( 'NONE', #146, #155, #277, .T. ) ;
#9 = AXIS2_PLACEMENT_3D ( 'NONE', #83, #79, #76 ) ;
#10 = EDGE_CURVE ( 'NONE', #161, #113, #332, .T. ) ;
#11 = AXIS2_PLACEMENT_3D ( 'NONE', #97, #88, #84 ) ;
#12 = EDGE_CURVE ( 'NONE', #124, #140, #326, .T. ) ;
#13 = AXIS2_PLACEMENT_3D ( 'NONE', #96, #95, #90 ) ;
#14 = AXIS2_PLACEMENT_3D ( 'NONE', #123, #142, #139 ) ;
#15 = EDGE_CURVE ( 'NONE', #132, #126, #280, .T. ) ;
#16 = AXIS2_PLACEMENT_3D ( 'NONE', #129, #94, #93 ) ;
#17 = EDGE_CURVE ( 'NONE', #155, #68, #211, .T. ) ;
#18 = AXIS2_PLACEMENT_3D ( 'NONE', #91, #92, #87 ) ;
#19 = EDGE_CURVE ( 'NONE', #140, #151, #305, .T. ) ;
#20 = AXIS2_PLACEMENT_3D ( 'NONE', #114, #116, #108 ) ;
#21 = EDGE_CURVE ( 'NONE', #140, #124, #223, .T. ) ;
#22 = EDGE_CURVE ( 'NONE', #68, #155, #233, .T. ) ;
#23 = EDGE_CURVE ( 'NONE', #195, #151, #311, .T. ) ;
#24 = AXIS2_PLACEMENT_3D ( 'NONE', #80, #86, #82 ) ;
#25 = AXIS2_PLACEMENT_3D ( 'NONE', #122, #135, #141 ) ;
#26 = CC_DESIGN_DATE_AND_TIME_ASSIGNMENT ( #238, #175, ( #39 ) ) ;
#27 = CC_DESIGN_PERSON_AND_ORGANIZATION_ASSIGNMENT ( #231, #169, ( #202 ) ) ;
#28 = PRODUCT_DEFINITION_FORMATION_WITH_SPECIFIED_SOURCE ( 'ANY', '', #202, .NOT_KNOWN. ) ;
#29 = AXIS2_PLACEMENT_3D ( 'NONE', #165, #166, #160 ) ;
#30 = APPROVAL ( #131, 'UNSPECIFIED' ) ;
#31 = CC_DESIGN_APPROVAL ( #30, ( #33 ) ) ;
#32 = CC_DESIGN_SECURITY_CLASSIFICATION ( #33, ( #28 ) ) ;
#33 = SECURITY_CLASSIFICATION ( '', '', #148 ) ;
#34 = CC_DESIGN_PERSON_AND_ORGANIZATION_ASSIGNMENT ( #281, #152, ( #33 ) ) ;
#35 = PRODUCT_RELATED_PRODUCT_CATEGORY ( 'detail', '', ( #202 ) ) ;
#36 = CC_DESIGN_DATE_AND_TIME_ASSIGNMENT ( #293, #144, ( #33 ) ) ;
#37 = AXIS2_PLACEMENT_3D ( 'NONE', #197, #198, #189 ) ;
#38 = AXIS2_PLACEMENT_3D ( 'NONE', #69, #188, #154 ) ;
#39 = PRODUCT_DEFINITION ( 'UNKNOWN', '', #28, #337 ) ;
#40 = CC_DESIGN_PERSON_AND_ORGANIZATION_ASSIGNMENT ( #267, #143, ( #28 ) ) ;
#41 = AXIS2_PLACEMENT_3D ( 'NONE', #65, #70, #71 ) ;
#42 = APPROVAL ( #145, 'UNSPECIFIED' ) ;
#43 = CC_DESIGN_APPROVAL ( #42, ( #28 ) ) ;
#44 = AXIS2_PLACEMENT_3D ( 'NONE', #178, #172, #174 ) ;
#45 = CC_DESIGN_PERSON_AND_ORGANIZATION_ASSIGNMENT ( #268, #147, ( #28 ) ) ;
#46 = AXIS2_PLACEMENT_3D ( 'NONE', #182, #136, #200 ) ;
#47 = CC_DESIGN_PERSON_AND_ORGANIZATION_ASSIGNMENT ( #230, #158, ( #39 ) ) ;
#48 = CC_DESIGN_APPROVAL ( #50, ( #39 ) ) ;
#49 = AXIS2_PLACEMENT_3D ( 'NONE', #73, #128, #66 ) ;
#50 = APPROVAL ( #171, 'UNSPECIFIED' ) ;
#51 = ADVANCED_FACE ( 'NONE', ( #222 ), #335, .T. ) ;
#52 = ADVANCED_FACE ( 'NONE', ( #242 ), #304, .T. ) ;
#53 = ADVANCED_FACE ( 'NONE', ( #276 ), #330, .T. ) ;
#54 = ADVANCED_FACE ( 'NONE', ( #310 ), #331, .T. ) ;
#55 = ADVANCED_FACE ( 'NONE', ( #336 ), #224, .T. ) ;
#56 = ADVANCED_FACE ( 'NONE', ( #322, #229 ), #77, .F. ) ;
#57 = ADVANCED_FACE ( 'NONE', ( #319 ), #255, .F. ) ;
#58 = ADVANCED_FACE ( 'NONE', ( #232 ), #258, .F. ) ;
#59 = ADVANCED_FACE ( 'NONE', ( #317, #259 ), #149, .F. ) ;
#60 = ADVANCED_FACE ( 'NONE', ( #309 ), #315, .T. ) ;
#61 = ADVANCED_BREP_SHAPE_REPRESENTATION ( 'KH-1630', ( #62, #29 ), #243 ) ;
#62 = MANIFOLD_SOLID_BREP ( 'Fillet1', #237 ) ;
#63 = UNCERTAINTY_MEASURE_WITH_UNIT (LENGTH_MEASURE( 1.000000000000000100E-005 ), #120, 'distance_accuracy_value', 'NONE');
#64 = CARTESIAN_POINT ( 'NONE',  ( 14.79999999999999400, 1.469576158976824100E-015, -12.00000000000000200 ) ) ;
#65 = CARTESIAN_POINT ( 'NONE',  ( -14.80000000000000100, 0.0000000000000000000, 0.0000000000000000000 ) ) ;
#66 = DIRECTION ( 'NONE',  ( 0.0000000000000000000, 0.0000000000000000000, 1.000000000000000000 ) ) ;
#67 = CARTESIAN_POINT ( 'NONE',  ( -68.33153641321104000, 0.0000000000000000000, 0.0000000000000000000 ) ) ;
#68 = VERTEX_POINT ( 'NONE', #130 ) ;
#69 = CARTESIAN_POINT ( 'NONE',  ( 15.00000000000000000, 0.0000000000000000000, 0.0000000000000000000 ) ) ;
#70 = DIRECTION ( 'NONE',  ( 1.000000000000000000, 0.0000000000000000000, 0.0000000000000000000 ) ) ;
#71 = DIRECTION ( 'NONE',  ( 0.0000000000000000000, 0.0000000000000000000, -1.000000000000000000 ) ) ;
#72 = DIRECTION ( 'NONE',  ( 0.0000000000000000000, 0.0000000000000000000, 1.000000000000000000 ) ) ;
#73 = CARTESIAN_POINT ( 'NONE',  ( -68.33153641321104000, 0.0000000000000000000, 0.0000000000000000000 ) ) ;
#74 = DIRECTION ( 'NONE',  ( -0.0000000000000000000, 0.0000000000000000000, 1.000000000000000000 ) ) ;
#75 = DIRECTION ( 'NONE',  ( -1.000000000000000000, 0.0000000000000000000, -0.0000000000000000000 ) ) ;
#76 = DIRECTION ( 'NONE',  ( 0.0000000000000000000, 0.0000000000000000000, 1.000000000000000000 ) ) ;
#77 = PLANE ( 'NONE',  #339 ) ;
#78 = CARTESIAN_POINT ( 'NONE',  ( 15.00000000000000000, 12.00000000000000400, 0.0000000000000000000 ) ) ;
#79 = DIRECTION ( 'NONE',  ( -1.000000000000000000, -0.0000000000000000000, -0.0000000000000000000 ) ) ;
#80 = CARTESIAN_POINT ( 'NONE',  ( -68.33153641321104000, 0.0000000000000000000, 0.0000000000000000000 ) ) ;
#81 = DIRECTION ( 'NONE',  ( 0.0000000000000000000, 0.0000000000000000000, 1.000000000000000000 ) ) ;
#82 = DIRECTION ( 'NONE',  ( 0.0000000000000000000, 0.0000000000000000000, 1.000000000000000000 ) ) ;
#83 = CARTESIAN_POINT ( 'NONE',  ( -68.33153641321104000, 0.0000000000000000000, 0.0000000000000000000 ) ) ;
#84 = DIRECTION ( 'NONE',  ( 0.0000000000000000000, 0.0000000000000000000, 1.000000000000000000 ) ) ;
#85 = DIRECTION ( 'NONE',  ( -1.000000000000000000, -0.0000000000000000000, -0.0000000000000000000 ) ) ;
#86 = DIRECTION ( 'NONE',  ( -1.000000000000000000, -0.0000000000000000000, -0.0000000000000000000 ) ) ;
#87 = DIRECTION ( 'NONE',  ( 0.0000000000000000000, 0.0000000000000000000, -1.000000000000000000 ) ) ;
#88 = DIRECTION ( 'NONE',  ( -1.000000000000000000, -0.0000000000000000000, -0.0000000000000000000 ) ) ;
#89 = CARTESIAN_POINT ( 'NONE',  ( 14.79999999999999400, 0.0000000000000000000, 0.0000000000000000000 ) ) ;
#90 = DIRECTION ( 'NONE',  ( 0.0000000000000000000, 0.0000000000000000000, -1.000000000000000000 ) ) ;
#91 = CARTESIAN_POINT ( 'NONE',  ( -14.80000000000000100, 0.0000000000000000000, 0.0000000000000000000 ) ) ;
#92 = DIRECTION ( 'NONE',  ( 1.000000000000000000, 0.0000000000000000000, 0.0000000000000000000 ) ) ;
#93 = DIRECTION ( 'NONE',  ( 0.0000000000000000000, 0.0000000000000000000, -1.000000000000000000 ) ) ;
#94 = DIRECTION ( 'NONE',  ( 1.000000000000000000, 0.0000000000000000000, 0.0000000000000000000 ) ) ;
#95 = DIRECTION ( 'NONE',  ( 1.000000000000000000, 0.0000000000000000000, 0.0000000000000000000 ) ) ;
#96 = CARTESIAN_POINT ( 'NONE',  ( -14.80000000000000100, 0.0000000000000000000, 0.0000000000000000000 ) ) ;
#97 = CARTESIAN_POINT ( 'NONE',  ( 14.79999999999999400, 0.0000000000000000000, 0.0000000000000000000 ) ) ;
#98 = DIRECTION ( 'NONE',  ( -1.000000000000000000, -0.0000000000000000000, -0.0000000000000000000 ) ) ;
#99 = DIRECTION ( 'NONE',  ( 0.0000000000000000000, 0.0000000000000000000, -1.000000000000000000 ) ) ;
#100 = DIRECTION ( 'NONE',  ( -1.000000000000000000, -0.0000000000000000000, -0.0000000000000000000 ) ) ;
#101 = DIRECTION ( 'NONE',  ( -1.000000000000000000, -0.0000000000000000000, -0.0000000000000000000 ) ) ;
#102 = CARTESIAN_POINT ( 'NONE',  ( -14.80000000000000100, 0.0000000000000000000, 12.00000000000000200 ) ) ;
#103 = CARTESIAN_POINT ( 'NONE',  ( -15.00000000000000400, 0.0000000000000000000, 0.0000000000000000000 ) ) ;
#104 = DIRECTION ( 'NONE',  ( 0.0000000000000000000, 0.0000000000000000000, 1.000000000000000000 ) ) ;
#105 = CARTESIAN_POINT ( 'NONE',  ( -15.00000000000000400, 8.000000000000000000, 0.0000000000000000000 ) ) ;
#106 = DIRECTION ( 'NONE',  ( -1.000000000000000000, -0.0000000000000000000, -0.0000000000000000000 ) ) ;
#107 = CARTESIAN_POINT ( 'NONE',  ( -14.80000000000000100, 1.445083222993876800E-015, 11.80000000000000100 ) ) ;
#108 = DIRECTION ( 'NONE',  ( 0.0000000000000000000, 0.0000000000000000000, 1.000000000000000000 ) ) ;
#109 = CARTESIAN_POINT ( 'NONE',  ( -15.00000000000000400, 0.0000000000000000000, -11.80000000000000100 ) ) ;
#110 = DIRECTION ( 'NONE',  ( 0.0000000000000000000, 1.000000000000000000, -1.224646799147353200E-016 ) ) ;
#111 = CARTESIAN_POINT ( 'NONE',  ( -15.00000000000000000, 0.0000000000000000000, 0.0000000000000000000 ) ) ;
#112 = DIRECTION ( 'NONE',  ( 0.0000000000000000000, 0.0000000000000000000, -1.000000000000000000 ) ) ;
#113 = VERTEX_POINT ( 'NONE', #64 ) ;
#114 = CARTESIAN_POINT ( 'NONE',  ( -15.00000000000000000, 0.0000000000000000000, 0.0000000000000000000 ) ) ;
#115 = DIRECTION ( 'NONE',  ( -1.000000000000000000, -0.0000000000000000000, -0.0000000000000000000 ) ) ;
#116 = DIRECTION ( 'NONE',  ( -1.000000000000000000, -0.0000000000000000000, -0.0000000000000000000 ) ) ;
#117 = VERTEX_POINT ( 'NONE', #196 ) ;
#118 = CARTESIAN_POINT ( 'NONE',  ( -68.33153641321104000, 9.797174393178827600E-016, -8.000000000000001800 ) ) ;
#119 = CARTESIAN_POINT ( 'NONE',  ( -15.00000000000000400, 0.0000000000000000000, 0.0000000000000000000 ) ) ;
#120 =( LENGTH_UNIT ( ) NAMED_UNIT ( * ) SI_UNIT ( .MILLI., .METRE. ) );
#121 = CARTESIAN_POINT ( 'NONE',  ( -68.33153641321104000, 1.469576158976824100E-015, -12.00000000000000200 ) ) ;
#122 = CARTESIAN_POINT ( 'NONE',  ( 15.00000000000000000, 0.0000000000000000000, 0.0000000000000000000 ) ) ;
#123 = CARTESIAN_POINT ( 'NONE',  ( 14.79999999999999400, 1.445083222993876800E-015, -11.80000000000000100 ) ) ;
#124 = VERTEX_POINT ( 'NONE', #109 ) ;
#125 =( NAMED_UNIT ( * ) SI_UNIT ( $, .STERADIAN. ) SOLID_ANGLE_UNIT ( ) );
#126 = VERTEX_POINT ( 'NONE', #184 ) ;
#127 = CARTESIAN_POINT ( 'NONE',  ( -68.33153641321104000, 0.0000000000000000000, 8.000000000000001800 ) ) ;
#128 = DIRECTION ( 'NONE',  ( -1.000000000000000000, -0.0000000000000000000, -0.0000000000000000000 ) ) ;
#129 = CARTESIAN_POINT ( 'NONE',  ( -14.80000000000000100, 0.0000000000000000000, 0.0000000000000000000 ) ) ;
#130 = CARTESIAN_POINT ( 'NONE',  ( -15.00000000000000000, 0.0000000000000000000, 8.000000000000000000 ) ) ;
#131 = APPROVAL_STATUS ( 'not_yet_approved' ) ;
#132 = VERTEX_POINT ( 'NONE', #156 ) ;
#133 = CARTESIAN_POINT ( 'NONE',  ( 14.79999999999999400, 0.0000000000000000000, 11.80000000000000100 ) ) ;
#134 = DIRECTION ( 'NONE',  ( 0.0000000000000000000, 0.0000000000000000000, -1.000000000000000000 ) ) ;
#135 = DIRECTION ( 'NONE',  ( -1.000000000000000000, -0.0000000000000000000, -0.0000000000000000000 ) ) ;
#136 = DIRECTION ( 'NONE',  ( -1.000000000000000000, -0.0000000000000000000, -0.0000000000000000000 ) ) ;
#137 = DIRECTION ( 'NONE',  ( -1.000000000000000000, -0.0000000000000000000, -0.0000000000000000000 ) ) ;
#138 = DIRECTION ( 'NONE',  ( 1.000000000000000000, 0.0000000000000000000, 0.0000000000000000000 ) ) ;
#139 = DIRECTION ( 'NONE',  ( 0.0000000000000000000, -1.224646799147353200E-016, 1.000000000000000000 ) ) ;
#140 = VERTEX_POINT ( 'NONE', #181 ) ;
#141 = DIRECTION ( 'NONE',  ( 0.0000000000000000000, 0.0000000000000000000, 1.000000000000000000 ) ) ;
#142 = DIRECTION ( 'NONE',  ( -0.0000000000000000000, 1.000000000000000000, 1.224646799147353200E-016 ) ) ;
#143 = PERSON_AND_ORGANIZATION_ROLE ( 'creator' ) ;
#144 = DATE_TIME_ROLE ( 'classification_date' ) ;
#145 = APPROVAL_STATUS ( 'not_yet_approved' ) ;
#146 = VERTEX_POINT ( 'NONE', #179 ) ;
#147 = PERSON_AND_ORGANIZATION_ROLE ( 'design_supplier' ) ;
#148 = SECURITY_CLASSIFICATION_LEVEL ( 'unclassified' ) ;
#149 = PLANE ( 'NONE',  #348 ) ;
#150 = CARTESIAN_POINT ( 'NONE',  ( 15.00000000000000000, 1.457329690985350400E-015, -11.80000000000000100 ) ) ;
#151 = VERTEX_POINT ( 'NONE', #102 ) ;
#152 = PERSON_AND_ORGANIZATION_ROLE ( 'classification_officer' ) ;
#153 = DIRECTION ( 'NONE',  ( -1.000000000000000000, -0.0000000000000000000, -0.0000000000000000000 ) ) ;
#154 = DIRECTION ( 'NONE',  ( 0.0000000000000000000, 0.0000000000000000000, 1.000000000000000000 ) ) ;
#155 = VERTEX_POINT ( 'NONE', #185 ) ;
#156 = CARTESIAN_POINT ( 'NONE',  ( 15.00000000000000000, 0.0000000000000000000, 11.80000000000000100 ) ) ;
#157 = APPROVAL_ROLE ( '' ) ;
#158 = PERSON_AND_ORGANIZATION_ROLE ( 'creator' ) ;
#159 = APPROVAL_ROLE ( '' ) ;
#160 = DIRECTION ( 'NONE',  ( 1.000000000000000000, 0.0000000000000000000, 0.0000000000000000000 ) ) ;
#161 = VERTEX_POINT ( 'NONE', #150 ) ;
#162 = APPLICATION_CONTEXT ( 'configuration controlled 3d designs of mechanical parts and assemblies' ) ;
#163 = MECHANICAL_CONTEXT ( 'NONE', #167, 'mechanical' ) ;
#164 = DIRECTION ( 'NONE',  ( -1.000000000000000000, -0.0000000000000000000, -0.0000000000000000000 ) ) ;
#165 = CARTESIAN_POINT ( 'NONE',  ( 0.0000000000000000000, 0.0000000000000000000, 0.0000000000000000000 ) ) ;
#166 = DIRECTION ( 'NONE',  ( 0.0000000000000000000, 0.0000000000000000000, 1.000000000000000000 ) ) ;
#167 = APPLICATION_CONTEXT ( 'configuration controlled 3d designs of mechanical parts and assemblies' ) ;
#168 = APPLICATION_PROTOCOL_DEFINITION ( 'international standard', 'config_control_design', 1994, #167 ) ;
#169 = PERSON_AND_ORGANIZATION_ROLE ( 'design_owner' ) ;
#170 = APPROVAL_ROLE ( '' ) ;
#171 = APPROVAL_STATUS ( 'not_yet_approved' ) ;
#172 = DIRECTION ( 'NONE',  ( 0.0000000000000000000, -1.000000000000000000, 0.0000000000000000000 ) ) ;
#173 = APPLICATION_PROTOCOL_DEFINITION ( 'international standard', 'config_control_design', 1994, #162 ) ;
#174 = DIRECTION ( 'NONE',  ( 0.0000000000000000000, 0.0000000000000000000, -1.000000000000000000 ) ) ;
#175 = DATE_TIME_ROLE ( 'creation_date' ) ;
#176 = DIRECTION ( 'NONE',  ( -1.000000000000000000, -0.0000000000000000000, -0.0000000000000000000 ) ) ;
#177 = DIRECTION ( 'NONE',  ( 0.0000000000000000000, 0.0000000000000000000, 1.000000000000000000 ) ) ;
#178 = CARTESIAN_POINT ( 'NONE',  ( -14.80000000000000100, 0.0000000000000000000, -11.80000000000000100 ) ) ;
#179 = CARTESIAN_POINT ( 'NONE',  ( 15.00000000000000000, 9.797174393178829600E-016, -8.000000000000003600 ) ) ;
#180 = CARTESIAN_POINT ( 'NONE',  ( -68.33153641321104000, 0.0000000000000000000, 12.00000000000000200 ) ) ;
#181 = CARTESIAN_POINT ( 'NONE',  ( -15.00000000000000400, 1.457329690985350400E-015, 11.80000000000000100 ) ) ;
#182 = CARTESIAN_POINT ( 'NONE',  ( 15.00000000000000000, 0.0000000000000000000, 0.0000000000000000000 ) ) ;
#183 = DIRECTION ( 'NONE',  ( 0.0000000000000000000, 1.224646799147353200E-016, 1.000000000000000000 ) ) ;
#184 = CARTESIAN_POINT ( 'NONE',  ( 14.79999999999999400, 0.0000000000000000000, 12.00000000000000200 ) ) ;
#185 = CARTESIAN_POINT ( 'NONE',  ( -15.00000000000000000, 9.797174393178827600E-016, -8.000000000000000000 ) ) ;
#186 = DIRECTION ( 'NONE',  ( 0.0000000000000000000, 0.0000000000000000000, -1.000000000000000000 ) ) ;
#187 =( NAMED_UNIT ( * ) PLANE_ANGLE_UNIT ( ) SI_UNIT ( $, .RADIAN. ) );
#188 = DIRECTION ( 'NONE',  ( 1.000000000000000000, 0.0000000000000000000, 0.0000000000000000000 ) ) ;
#189 = DIRECTION ( 'NONE',  ( 0.0000000000000000000, 0.0000000000000000000, 1.000000000000000000 ) ) ;
#190 = CARTESIAN_POINT ( 'NONE',  ( -14.80000000000000100, 1.469576158976824100E-015, -12.00000000000000200 ) ) ;
#191 = CARTESIAN_POINT ( 'NONE',  ( 15.00000000000000000, 0.0000000000000000000, 0.0000000000000000000 ) ) ;
#192 = CARTESIAN_POINT ( 'NONE',  ( 14.79999999999999400, 0.0000000000000000000, 0.0000000000000000000 ) ) ;
#193 = DIRECTION ( 'NONE',  ( 0.0000000000000000000, 0.0000000000000000000, 1.000000000000000000 ) ) ;
#194 = DIRECTION ( 'NONE',  ( 1.000000000000000000, 0.0000000000000000000, 0.0000000000000000000 ) ) ;
#195 = VERTEX_POINT ( 'NONE', #190 ) ;
#196 = CARTESIAN_POINT ( 'NONE',  ( 15.00000000000000000, 0.0000000000000000000, 8.000000000000003600 ) ) ;
#197 = CARTESIAN_POINT ( 'NONE',  ( 14.79999999999999400, 0.0000000000000000000, 0.0000000000000000000 ) ) ;
#198 = DIRECTION ( 'NONE',  ( -1.000000000000000000, -0.0000000000000000000, -0.0000000000000000000 ) ) ;
#199 = DIRECTION ( 'NONE',  ( 0.0000000000000000000, -1.000000000000000000, 0.0000000000000000000 ) ) ;
#200 = DIRECTION ( 'NONE',  ( 0.0000000000000000000, 0.0000000000000000000, 1.000000000000000000 ) ) ;
#201 = PERSON ( 'UNSPECIFIED', 'UNSPECIFIED', 'UNSPECIFIED', ('UNSPECIFIED'), ('UNSPECIFIED'), ('UNSPECIFIED') ) ;
#202 = PRODUCT ( 'KH-1630', 'KH-1630', '', ( #163 ) ) ;
#203 = ORIENTED_EDGE ( 'NONE', *, *, #351, .F. ) ;
#204 = LOCAL_TIME ( 12, 14, 41.00000000000000000, #216 ) ;
#205 = VECTOR ( 'NONE', #153, 1000.000000000000000 ) ;
#206 = LOCAL_TIME ( 12, 14, 41.00000000000000000, #289 ) ;
#207 = LOCAL_TIME ( 12, 14, 41.00000000000000000, #262 ) ;
#208 = DATE_AND_TIME ( #220, #221 ) ;
#209 = EDGE_LOOP ( 'NONE', ( #291, #203, #324, #306 ) ) ;
#210 = CIRCLE ( 'NONE', #25, 8.000000000000003600 ) ;
#211 = CIRCLE ( 'NONE', #340, 8.000000000000000000 ) ;
#212 = PERSON_AND_ORGANIZATION ( #201, #226 ) ;
#213 = DATE_AND_TIME ( #214, #204 ) ;
#214 = CALENDAR_DATE ( 2014, 8, 8 ) ;
#215 = COORDINATED_UNIVERSAL_TIME_OFFSET ( 2, 0, .AHEAD. ) ;
#216 = COORDINATED_UNIVERSAL_TIME_OFFSET ( 2, 0, .AHEAD. ) ;
#217 = ORIENTED_EDGE ( 'NONE', *, *, #22, .F. ) ;
#218 = APPROVAL_PERSON_ORGANIZATION ( #212, #50, #170 ) ;
#219 = CIRCLE ( 'NONE', #2, 12.00000000000000200 ) ;
#220 = CALENDAR_DATE ( 2014, 8, 8 ) ;
#221 = LOCAL_TIME ( 12, 14, 41.00000000000000000, #215 ) ;
#222 = FACE_OUTER_BOUND ( 'NONE', #307, .T. ) ;
#223 = CIRCLE ( 'NONE', #6, 11.80000000000000100 ) ;
#224 = CYLINDRICAL_SURFACE ( 'NONE', #24, 12.00000000000000200 ) ;
#225 = APPROVAL_DATE_TIME ( #208, #30 ) ;
#226 = ORGANIZATION ( 'UNSPECIFIED', 'UNSPECIFIED', '' ) ;
#227 = SHAPE_DEFINITION_REPRESENTATION ( #338, #61 ) ;
#228 = CIRCLE ( 'NONE', #38, 11.80000000000000100 ) ;
#229 = FACE_BOUND ( 'NONE', #303, .T. ) ;
#230 = PERSON_AND_ORGANIZATION ( #201, #226 ) ;
#231 = PERSON_AND_ORGANIZATION ( #201, #226 ) ;
#232 = FACE_OUTER_BOUND ( 'NONE', #209, .T. ) ;
#233 = CIRCLE ( 'NONE', #20, 8.000000000000000000 ) ;
#234 = LINE ( 'NONE', #121, #205 ) ;
#235 = ORIENTED_EDGE ( 'NONE', *, *, #10, .F. ) ;
#236 = VECTOR ( 'NONE', #100, 1000.000000000000000 ) ;
#237 = CLOSED_SHELL ( 'NONE', ( #53, #51, #57, #55, #60, #56, #58, #59, #52, #54 ) ) ;
#238 = DATE_AND_TIME ( #244, #207 ) ;
#239 = ORIENTED_EDGE ( 'NONE', *, *, #21, .T. ) ;
#240 = LINE ( 'NONE', #127, #278 ) ;
#241 = EDGE_LOOP ( 'NONE', ( #295, #313, #261, #299 ) ) ;
#242 = FACE_OUTER_BOUND ( 'NONE', #254, .T. ) ;
#243 =( GEOMETRIC_REPRESENTATION_CONTEXT ( 3 ) GLOBAL_UNCERTAINTY_ASSIGNED_CONTEXT ( ( #63 ) ) GLOBAL_UNIT_ASSIGNED_CONTEXT ( ( #120, #187, #125 ) ) REPRESENTATION_CONTEXT ( 'NONE', 'WORKASPACE' ) );
#244 = CALENDAR_DATE ( 2014, 8, 8 ) ;
#245 = CIRCLE ( 'NONE', #342, 11.80000000000000100 ) ;
#246 = APPROVAL_PERSON_ORGANIZATION ( #294, #30, #159 ) ;
#247 = COORDINATED_UNIVERSAL_TIME_OFFSET ( 2, 0, .AHEAD. ) ;
#248 = ORIENTED_EDGE ( 'NONE', *, *, #352, .F. ) ;
#249 = APPROVAL_PERSON_ORGANIZATION ( #279, #42, #157 ) ;
#250 = ORIENTED_EDGE ( 'NONE', *, *, #349, .F. ) ;
#251 = ORIENTED_EDGE ( 'NONE', *, *, #15, .T. ) ;
#252 = ORIENTED_EDGE ( 'NONE', *, *, #12, .F. ) ;
#253 = ORIENTED_EDGE ( 'NONE', *, *, #350, .F. ) ;
#254 = EDGE_LOOP ( 'NONE', ( #316, #252, #287, #253 ) ) ;
#255 = CYLINDRICAL_SURFACE ( 'NONE', #9, 8.000000000000001800 ) ;
#256 = LINE ( 'NONE', #180, #318 ) ;
#257 = ORIENTED_EDGE ( 'NONE', *, *, #343, .T. ) ;
#258 = CYLINDRICAL_SURFACE ( 'NONE', #3, 8.000000000000001800 ) ;
#259 = FACE_BOUND ( 'NONE', #272, .T. ) ;
#260 = ORIENTED_EDGE ( 'NONE', *, *, #23, .T. ) ;
#261 = ORIENTED_EDGE ( 'NONE', *, *, #353, .T. ) ;
#262 = COORDINATED_UNIVERSAL_TIME_OFFSET ( 2, 0, .AHEAD. ) ;
#263 = APPROVAL_DATE_TIME ( #271, #42 ) ;
#264 = CIRCLE ( 'NONE', #37, 12.00000000000000200 ) ;
#265 = ORIENTED_EDGE ( 'NONE', *, *, #351, .T. ) ;
#266 = APPROVAL_DATE_TIME ( #213, #50 ) ;
#267 = PERSON_AND_ORGANIZATION ( #201, #226 ) ;
#268 = PERSON_AND_ORGANIZATION ( #201, #226 ) ;
#269 = LOCAL_TIME ( 12, 14, 41.00000000000000000, #247 ) ;
#270 = CALENDAR_DATE ( 2014, 8, 8 ) ;
#271 = DATE_AND_TIME ( #270, #269 ) ;
#272 = EDGE_LOOP ( 'NONE', ( #217, #321 ) ) ;
#273 = EDGE_LOOP ( 'NONE', ( #296, #297, #260, #334 ) ) ;
#274 = ORIENTED_EDGE ( 'NONE', *, *, #17, .T. ) ;
#275 = ORIENTED_EDGE ( 'NONE', *, *, #12, .T. ) ;
#276 = FACE_OUTER_BOUND ( 'NONE', #302, .T. ) ;
#277 = LINE ( 'NONE', #118, #236 ) ;
#278 = VECTOR ( 'NONE', #164, 1000.000000000000000 ) ;
#279 = PERSON_AND_ORGANIZATION ( #201, #226 ) ;
#280 = CIRCLE ( 'NONE', #345, 0.2000000000000005100 ) ;
#281 = PERSON_AND_ORGANIZATION ( #201, #226 ) ;
#282 = ORIENTED_EDGE ( 'NONE', *, *, #8, .T. ) ;
#283 = ORIENTED_EDGE ( 'NONE', *, *, #347, .F. ) ;
#284 = ORIENTED_EDGE ( 'NONE', *, *, #343, .F. ) ;
#285 = ORIENTED_EDGE ( 'NONE', *, *, #10, .T. ) ;
#286 = ORIENTED_EDGE ( 'NONE', *, *, #341, .F. ) ;
#287 = ORIENTED_EDGE ( 'NONE', *, *, #346, .T. ) ;
#288 = ORIENTED_EDGE ( 'NONE', *, *, #19, .T. ) ;
#289 = COORDINATED_UNIVERSAL_TIME_OFFSET ( 2, 0, .AHEAD. ) ;
#290 = ORIENTED_EDGE ( 'NONE', *, *, #346, .F. ) ;
#291 = ORIENTED_EDGE ( 'NONE', *, *, #8, .F. ) ;
#292 = CALENDAR_DATE ( 2014, 8, 8 ) ;
#293 = DATE_AND_TIME ( #292, #206 ) ;
#294 = PERSON_AND_ORGANIZATION ( #201, #226 ) ;
#295 = ORIENTED_EDGE ( 'NONE', *, *, #344, .F. ) ;
#296 = ORIENTED_EDGE ( 'NONE', *, *, #341, .T. ) ;
#297 = ORIENTED_EDGE ( 'NONE', *, *, #344, .T. ) ;
#298 = ORIENTED_EDGE ( 'NONE', *, *, #5, .F. ) ;
#299 = ORIENTED_EDGE ( 'NONE', *, *, #350, .T. ) ;
#300 = EDGE_LOOP ( 'NONE', ( #235, #248, #251, #250 ) ) ;
#301 = EDGE_LOOP ( 'NONE', ( #283, #282, #274, #298 ) ) ;
#302 = EDGE_LOOP ( 'NONE', ( #284, #285, #286, #308 ) ) ;
#303 = EDGE_LOOP ( 'NONE', ( #265, #333 ) ) ;
#304 = TOROIDAL_SURFACE ( 'NONE', #18, 11.80000000000000100, 0.2000000000000000100 ) ;
#305 = CIRCLE ( 'NONE', #1, 0.2000000000000005100 ) ;
#306 = ORIENTED_EDGE ( 'NONE', *, *, #22, .T. ) ;
#307 = EDGE_LOOP ( 'NONE', ( #327, #288, #314, #290 ) ) ;
#308 = ORIENTED_EDGE ( 'NONE', *, *, #15, .F. ) ;
#309 = FACE_OUTER_BOUND ( 'NONE', #241, .T. ) ;
#310 = FACE_OUTER_BOUND ( 'NONE', #300, .T. ) ;
#311 = CIRCLE ( 'NONE', #16, 12.00000000000000200 ) ;
#312 = ORIENTED_EDGE ( 'NONE', *, *, #352, .T. ) ;
#313 = ORIENTED_EDGE ( 'NONE', *, *, #349, .T. ) ;
#314 = ORIENTED_EDGE ( 'NONE', *, *, #23, .F. ) ;
#315 = CYLINDRICAL_SURFACE ( 'NONE', #49, 12.00000000000000200 ) ;
#316 = ORIENTED_EDGE ( 'NONE', *, *, #19, .F. ) ;
#317 = FACE_OUTER_BOUND ( 'NONE', #329, .T. ) ;
#318 = VECTOR ( 'NONE', #98, 1000.000000000000000 ) ;
#319 = FACE_OUTER_BOUND ( 'NONE', #301, .T. ) ;
#320 = CIRCLE ( 'NONE', #46, 8.000000000000003600 ) ;
#321 = ORIENTED_EDGE ( 'NONE', *, *, #17, .F. ) ;
#322 = FACE_OUTER_BOUND ( 'NONE', #323, .T. ) ;
#323 = EDGE_LOOP ( 'NONE', ( #312, #257 ) ) ;
#324 = ORIENTED_EDGE ( 'NONE', *, *, #5, .T. ) ;
#325 = CIRCLE ( 'NONE', #44, 0.2000000000000005100 ) ;
#326 = CIRCLE ( 'NONE', #4, 11.80000000000000100 ) ;
#327 = ORIENTED_EDGE ( 'NONE', *, *, #21, .F. ) ;
#328 = CIRCLE ( 'NONE', #41, 12.00000000000000200 ) ;
#329 = EDGE_LOOP ( 'NONE', ( #275, #239 ) ) ;
#330 = TOROIDAL_SURFACE ( 'NONE', #11, 11.80000000000000100, 0.2000000000000000100 ) ;
#331 = TOROIDAL_SURFACE ( 'NONE', #7, 11.80000000000000100, 0.2000000000000000100 ) ;
#332 = CIRCLE ( 'NONE', #14, 0.2000000000000005100 ) ;
#333 = ORIENTED_EDGE ( 'NONE', *, *, #347, .T. ) ;
#334 = ORIENTED_EDGE ( 'NONE', *, *, #353, .F. ) ;
#335 = TOROIDAL_SURFACE ( 'NONE', #13, 11.80000000000000100, 0.2000000000000000100 ) ;
#336 = FACE_OUTER_BOUND ( 'NONE', #273, .T. ) ;
#337 = DESIGN_CONTEXT ( 'detailed design', #162, 'design' ) ;
#338 = PRODUCT_DEFINITION_SHAPE ( 'NONE', 'NONE',  #39 ) ;
#339 = AXIS2_PLACEMENT_3D ( 'NONE', #78, #75, #74 ) ;
#340 = AXIS2_PLACEMENT_3D ( 'NONE', #111, #137, #104 ) ;
#341 = EDGE_CURVE ( 'NONE', #126, #113, #219, .T. ) ;
#342 = AXIS2_PLACEMENT_3D ( 'NONE', #191, #194, #193 ) ;
#343 = EDGE_CURVE ( 'NONE', #161, #132, #245, .T. ) ;
#344 = EDGE_CURVE ( 'NONE', #113, #195, #234, .T. ) ;
#345 = AXIS2_PLACEMENT_3D ( 'NONE', #133, #199, #186 ) ;
#346 = EDGE_CURVE ( 'NONE', #124, #195, #325, .T. ) ;
#347 = EDGE_CURVE ( 'NONE', #146, #117, #320, .T. ) ;
#348 = AXIS2_PLACEMENT_3D ( 'NONE', #105, #138, #134 ) ;
#349 = EDGE_CURVE ( 'NONE', #113, #126, #264, .T. ) ;
#350 = EDGE_CURVE ( 'NONE', #151, #195, #328, .T. ) ;
#351 = EDGE_CURVE ( 'NONE', #117, #146, #210, .T. ) ;
#352 = EDGE_CURVE ( 'NONE', #132, #161, #228, .T. ) ;
#353 = EDGE_CURVE ( 'NONE', #126, #151, #256, .T. ) ;
ENDSEC;
END-ISO-10303-21;
