ISO-10303-21;
HEADER;
FILE_DESCRIPTION (( 'STEP AP203' ),
    '1' );
FILE_NAME ('KH-1228.STEP',
    '2014-08-08T09:12:11',
    ( 'Ovidiu Buiga' ),
    ( '' ),
    'SwSTEP 2.0',
    'SolidWorks 2010',
    '' );
FILE_SCHEMA (( 'CONFIG_CONTROL_DESIGN' ));
ENDSEC;

DATA;
#1 = PRODUCT_DEFINITION_FORMATION_WITH_SPECIFIED_SOURCE ( 'ANY', '', #216, .NOT_KNOWN. ) ;
#2 = CC_DESIGN_PERSON_AND_ORGANIZATION_ASSIGNMENT ( #228, #115, ( #1 ) ) ;
#3 = CC_DESIGN_APPROVAL ( #5, ( #13 ) ) ;
#4 = APPROVAL ( #123, 'UNSPECIFIED' ) ;
#5 = APPROVAL ( #111, 'UNSPECIFIED' ) ;
#6 = PRODUCT_RELATED_PRODUCT_CATEGORY ( 'detail', '', ( #216 ) ) ;
#7 = CC_DESIGN_PERSON_AND_ORGANIZATION_ASSIGNMENT ( #218, #113, ( #13 ) ) ;
#8 = CC_DESIGN_PERSON_AND_ORGANIZATION_ASSIGNMENT ( #226, #117, ( #1 ) ) ;
#9 = AXIS2_PLACEMENT_3D ( 'NONE', #150, #131, #141 ) ;
#10 = PRODUCT_DEFINITION ( 'UNKNOWN', '', #1, #77 ) ;
#11 = AXIS2_PLACEMENT_3D ( 'NONE', #85, #104, #96 ) ;
#12 = CC_DESIGN_PERSON_AND_ORGANIZATION_ASSIGNMENT ( #264, #126, ( #216 ) ) ;
#13 = SECURITY_CLASSIFICATION ( '', '', #114 ) ;
#14 = CC_DESIGN_APPROVAL ( #4, ( #10 ) ) ;
#15 = AXIS2_PLACEMENT_3D ( 'NONE', #145, #91, #190 ) ;
#16 = AXIS2_PLACEMENT_3D ( 'NONE', #132, #142, #127 ) ;
#17 = CC_DESIGN_DATE_AND_TIME_ASSIGNMENT ( #347, #120, ( #10 ) ) ;
#18 = CC_DESIGN_APPROVAL ( #21, ( #1 ) ) ;
#19 = CC_DESIGN_PERSON_AND_ORGANIZATION_ASSIGNMENT ( #304, #121, ( #10 ) ) ;
#20 = CC_DESIGN_SECURITY_CLASSIFICATION ( #13, ( #1 ) ) ;
#21 = APPROVAL ( #119, 'UNSPECIFIED' ) ;
#22 = CC_DESIGN_DATE_AND_TIME_ASSIGNMENT ( #230, #112, ( #13 ) ) ;
#23 = ADVANCED_FACE ( 'NONE', ( #276 ), #272, .T. ) ;
#24 = ADVANCED_FACE ( 'NONE', ( #270 ), #322, .T. ) ;
#25 = ADVANCED_FACE ( 'NONE', ( #274 ), #269, .T. ) ;
#26 = ADVANCED_FACE ( 'NONE', ( #277 ), #267, .T. ) ;
#27 = ADVANCED_FACE ( 'NONE', ( #271, #280 ), #191, .F. ) ;
#28 = ADVANCED_FACE ( 'NONE', ( #273 ), #268, .T. ) ;
#29 = ADVANCED_FACE ( 'NONE', ( #289 ), #279, .T. ) ;
#30 = ADVANCED_FACE ( 'NONE', ( #288, #285 ), #133, .F. ) ;
#31 = ADVANCED_FACE ( 'NONE', ( #275 ), #287, .F. ) ;
#32 = ADVANCED_BREP_SHAPE_REPRESENTATION ( 'KH-1228', ( #352, #16 ), #259 ) ;
#33 = UNCERTAINTY_MEASURE_WITH_UNIT (LENGTH_MEASURE( 1.000000000000000100E-005 ), #137, 'distance_accuracy_value', 'NONE');
#34 = AXIS2_PLACEMENT_3D ( 'NONE', #95, #195, #196 ) ;
#35 = AXIS2_PLACEMENT_3D ( 'NONE', #98, #211, #192 ) ;
#36 = AXIS2_PLACEMENT_3D ( 'NONE', #155, #92, #214 ) ;
#37 = AXIS2_PLACEMENT_3D ( 'NONE', #87, #94, #93 ) ;
#38 = AXIS2_PLACEMENT_3D ( 'NONE', #156, #154, #153 ) ;
#39 = AXIS2_PLACEMENT_3D ( 'NONE', #158, #183, #204 ) ;
#40 = AXIS2_PLACEMENT_3D ( 'NONE', #165, #180, #181 ) ;
#41 = AXIS2_PLACEMENT_3D ( 'NONE', #182, #184, #175 ) ;
#42 = AXIS2_PLACEMENT_3D ( 'NONE', #162, #160, #159 ) ;
#43 = AXIS2_PLACEMENT_3D ( 'NONE', #83, #82, #215 ) ;
#44 = AXIS2_PLACEMENT_3D ( 'NONE', #108, #136, #148 ) ;
#45 = AXIS2_PLACEMENT_3D ( 'NONE', #177, #179, #174 ) ;
#46 = AXIS2_PLACEMENT_3D ( 'NONE', #143, #152, #176 ) ;
#47 = AXIS2_PLACEMENT_3D ( 'NONE', #185, #144, #194 ) ;
#48 = AXIS2_PLACEMENT_3D ( 'NONE', #107, #213, #149 ) ;
#49 = AXIS2_PLACEMENT_3D ( 'NONE', #99, #138, #105 ) ;
#50 = AXIS2_PLACEMENT_3D ( 'NONE', #173, #172, #171 ) ;
#51 = AXIS2_PLACEMENT_3D ( 'NONE', #102, #212, #81 ) ;
#52 = EDGE_CURVE ( 'NONE', #116, #106, #350, .T. ) ;
#53 = EDGE_CURVE ( 'NONE', #208, #203, #343, .T. ) ;
#54 = EDGE_CURVE ( 'NONE', #208, #109, #340, .T. ) ;
#55 = EDGE_CURVE ( 'NONE', #178, #167, #341, .T. ) ;
#56 = AXIS2_PLACEMENT_3D ( 'NONE', #189, #86, #101 ) ;
#57 = EDGE_CURVE ( 'NONE', #106, #109, #236, .T. ) ;
#58 = EDGE_CURVE ( 'NONE', #206, #106, #345, .T. ) ;
#59 = EDGE_CURVE ( 'NONE', #169, #206, #232, .T. ) ;
#60 = EDGE_CURVE ( 'NONE', #106, #116, #235, .T. ) ;
#61 = EDGE_CURVE ( 'NONE', #178, #201, #234, .T. ) ;
#62 = EDGE_CURVE ( 'NONE', #109, #147, #238, .T. ) ;
#63 = EDGE_CURVE ( 'NONE', #203, #147, #239, .T. ) ;
#64 = EDGE_CURVE ( 'NONE', #198, #201, #241, .T. ) ;
#65 = EDGE_CURVE ( 'NONE', #206, #169, #242, .T. ) ;
#66 = EDGE_CURVE ( 'NONE', #167, #178, #243, .T. ) ;
#67 = EDGE_CURVE ( 'NONE', #203, #208, #245, .T. ) ;
#68 = EDGE_CURVE ( 'NONE', #201, #198, #247, .T. ) ;
#69 = EDGE_CURVE ( 'NONE', #116, #147, #237, .T. ) ;
#70 = EDGE_CURVE ( 'NONE', #167, #198, #248, .T. ) ;
#71 = EDGE_CURVE ( 'NONE', #169, #116, #251, .T. ) ;
#72 = AXIS2_PLACEMENT_3D ( 'NONE', #188, #164, #103 ) ;
#73 = EDGE_CURVE ( 'NONE', #147, #109, #252, .T. ) ;
#74 = AXIS2_PLACEMENT_3D ( 'NONE', #170, #168, #166 ) ;
#75 = AXIS2_PLACEMENT_3D ( 'NONE', #100, #186, #161 ) ;
#76 = AXIS2_PLACEMENT_3D ( 'NONE', #80, #84, #199 ) ;
#77 = DESIGN_CONTEXT ( 'detailed design', #125, 'design' ) ;
#78 = PRODUCT_DEFINITION_SHAPE ( 'NONE', 'NONE',  #10 ) ;
#79 = CARTESIAN_POINT ( 'NONE',  ( 13.80000000000000600, 1.163414459189985700E-015, -9.500000000000001800 ) ) ;
#80 = CARTESIAN_POINT ( 'NONE',  ( 13.80000000000000600, 0.0000000000000000000, 0.0000000000000000000 ) ) ;
#81 = DIRECTION ( 'NONE',  ( 0.0000000000000000000, 0.0000000000000000000, -1.000000000000000000 ) ) ;
#82 = DIRECTION ( 'NONE',  ( -1.000000000000000000, -0.0000000000000000000, -0.0000000000000000000 ) ) ;
#83 = CARTESIAN_POINT ( 'NONE',  ( -68.33153641321104000, 0.0000000000000000000, 0.0000000000000000000 ) ) ;
#84 = DIRECTION ( 'NONE',  ( -1.000000000000000000, -0.0000000000000000000, -0.0000000000000000000 ) ) ;
#85 = CARTESIAN_POINT ( 'NONE',  ( 13.80000000000000600, 1.138921523207038600E-015, -9.300000000000000700 ) ) ;
#86 = DIRECTION ( 'NONE',  ( -1.000000000000000000, -0.0000000000000000000, -0.0000000000000000000 ) ) ;
#87 = CARTESIAN_POINT ( 'NONE',  ( 14.00000000000000400, 0.0000000000000000000, 0.0000000000000000000 ) ) ;
#88 = CARTESIAN_POINT ( 'NONE',  ( 14.00000000000001200, 0.0000000000000000000, 6.000000000000003600 ) ) ;
#89 = CARTESIAN_POINT ( 'NONE',  ( -14.00000000000000500, 1.151167991198511900E-015, 9.300000000000000700 ) ) ;
#90 = CARTESIAN_POINT ( 'NONE',  ( -13.80000000000000600, 1.163414459189985700E-015, -9.500000000000001800 ) ) ;
#91 = DIRECTION ( 'NONE',  ( 1.000000000000000000, 0.0000000000000000000, 0.0000000000000000000 ) ) ;
#92 = DIRECTION ( 'NONE',  ( -1.000000000000000000, -0.0000000000000000000, -0.0000000000000000000 ) ) ;
#93 = DIRECTION ( 'NONE',  ( 0.0000000000000000000, 0.0000000000000000000, 1.000000000000000000 ) ) ;
#94 = DIRECTION ( 'NONE',  ( 1.000000000000000000, 0.0000000000000000000, 0.0000000000000000000 ) ) ;
#95 = CARTESIAN_POINT ( 'NONE',  ( -14.00000000000000500, 0.0000000000000000000, 0.0000000000000000000 ) ) ;
#96 = DIRECTION ( 'NONE',  ( 0.0000000000000000000, -1.224646799147353200E-016, 1.000000000000000000 ) ) ;
#97 = DIRECTION ( 'NONE',  ( -1.000000000000000000, -0.0000000000000000000, -0.0000000000000000000 ) ) ;
#98 = CARTESIAN_POINT ( 'NONE',  ( -14.00000000000000500, 0.0000000000000000000, 0.0000000000000000000 ) ) ;
#99 = CARTESIAN_POINT ( 'NONE',  ( -68.33153641321104000, 0.0000000000000000000, 0.0000000000000000000 ) ) ;
#100 = CARTESIAN_POINT ( 'NONE',  ( 13.80000000000000600, 0.0000000000000000000, 0.0000000000000000000 ) ) ;
#101 = DIRECTION ( 'NONE',  ( 0.0000000000000000000, 0.0000000000000000000, 1.000000000000000000 ) ) ;
#102 = CARTESIAN_POINT ( 'NONE',  ( -13.80000000000000600, 0.0000000000000000000, 0.0000000000000000000 ) ) ;
#103 = DIRECTION ( 'NONE',  ( 0.0000000000000000000, 0.0000000000000000000, -1.000000000000000000 ) ) ;
#104 = DIRECTION ( 'NONE',  ( -0.0000000000000000000, 1.000000000000000000, 1.224646799147353200E-016 ) ) ;
#105 = DIRECTION ( 'NONE',  ( 0.0000000000000000000, 0.0000000000000000000, 1.000000000000000000 ) ) ;
#106 = VERTEX_POINT ( 'NONE', #146 ) ;
#107 = CARTESIAN_POINT ( 'NONE',  ( -68.33153641321104000, 0.0000000000000000000, 0.0000000000000000000 ) ) ;
#108 = CARTESIAN_POINT ( 'NONE',  ( 14.00000000000000400, 9.500000000000003600, 0.0000000000000000000 ) ) ;
#109 = VERTEX_POINT ( 'NONE', #193 ) ;
#110 = APPROVAL_ROLE ( '' ) ;
#111 = APPROVAL_STATUS ( 'not_yet_approved' ) ;
#112 = DATE_TIME_ROLE ( 'classification_date' ) ;
#113 = PERSON_AND_ORGANIZATION_ROLE ( 'classification_officer' ) ;
#114 = SECURITY_CLASSIFICATION_LEVEL ( 'unclassified' ) ;
#115 = PERSON_AND_ORGANIZATION_ROLE ( 'design_supplier' ) ;
#116 = VERTEX_POINT ( 'NONE', #79 ) ;
#117 = PERSON_AND_ORGANIZATION_ROLE ( 'creator' ) ;
#118 = APPROVAL_ROLE ( '' ) ;
#119 = APPROVAL_STATUS ( 'not_yet_approved' ) ;
#120 = DATE_TIME_ROLE ( 'creation_date' ) ;
#121 = PERSON_AND_ORGANIZATION_ROLE ( 'creator' ) ;
#122 = APPROVAL_ROLE ( '' ) ;
#123 = APPROVAL_STATUS ( 'not_yet_approved' ) ;
#124 = APPLICATION_PROTOCOL_DEFINITION ( 'international standard', 'config_control_design', 1994, #125 ) ;
#125 = APPLICATION_CONTEXT ( 'configuration controlled 3d designs of mechanical parts and assemblies' ) ;
#126 = PERSON_AND_ORGANIZATION_ROLE ( 'design_owner' ) ;
#127 = DIRECTION ( 'NONE',  ( 1.000000000000000000, 0.0000000000000000000, 0.0000000000000000000 ) ) ;
#128 = APPLICATION_CONTEXT ( 'configuration controlled 3d designs of mechanical parts and assemblies' ) ;
#129 = APPLICATION_PROTOCOL_DEFINITION ( 'international standard', 'config_control_design', 1994, #128 ) ;
#130 =( NAMED_UNIT ( * ) SI_UNIT ( $, .STERADIAN. ) SOLID_ANGLE_UNIT ( ) );
#131 = DIRECTION ( 'NONE',  ( -1.000000000000000000, -0.0000000000000000000, -0.0000000000000000000 ) ) ;
#132 = CARTESIAN_POINT ( 'NONE',  ( 0.0000000000000000000, 0.0000000000000000000, 0.0000000000000000000 ) ) ;
#133 = PLANE ( 'NONE',  #44 ) ;
#134 = MECHANICAL_CONTEXT ( 'NONE', #128, 'mechanical' ) ;
#135 = CARTESIAN_POINT ( 'NONE',  ( 14.00000000000001200, 7.347880794884123700E-016, -6.000000000000003600 ) ) ;
#136 = DIRECTION ( 'NONE',  ( -1.000000000000000000, 0.0000000000000000000, -0.0000000000000000000 ) ) ;
#137 =( LENGTH_UNIT ( ) NAMED_UNIT ( * ) SI_UNIT ( .MILLI., .METRE. ) );
#138 = DIRECTION ( 'NONE',  ( -1.000000000000000000, -0.0000000000000000000, -0.0000000000000000000 ) ) ;
#139 = CARTESIAN_POINT ( 'NONE',  ( -68.33153641321104000, 7.347880794884121700E-016, -6.000000000000001800 ) ) ;
#140 =( NAMED_UNIT ( * ) PLANE_ANGLE_UNIT ( ) SI_UNIT ( $, .RADIAN. ) );
#141 = DIRECTION ( 'NONE',  ( 0.0000000000000000000, 0.0000000000000000000, 1.000000000000000000 ) ) ;
#142 = DIRECTION ( 'NONE',  ( 0.0000000000000000000, 0.0000000000000000000, 1.000000000000000000 ) ) ;
#143 = CARTESIAN_POINT ( 'NONE',  ( 13.80000000000000600, 0.0000000000000000000, 0.0000000000000000000 ) ) ;
#144 = DIRECTION ( 'NONE',  ( 1.000000000000000000, 0.0000000000000000000, 0.0000000000000000000 ) ) ;
#145 = CARTESIAN_POINT ( 'NONE',  ( -13.80000000000000600, 0.0000000000000000000, 0.0000000000000000000 ) ) ;
#146 = CARTESIAN_POINT ( 'NONE',  ( 13.80000000000000600, 0.0000000000000000000, 9.500000000000001800 ) ) ;
#147 = VERTEX_POINT ( 'NONE', #90 ) ;
#148 = DIRECTION ( 'NONE',  ( -0.0000000000000000000, 0.0000000000000000000, 1.000000000000000000 ) ) ;
#149 = DIRECTION ( 'NONE',  ( 0.0000000000000000000, 0.0000000000000000000, 1.000000000000000000 ) ) ;
#150 = CARTESIAN_POINT ( 'NONE',  ( -68.33153641321104000, 0.0000000000000000000, 0.0000000000000000000 ) ) ;
#151 = CARTESIAN_POINT ( 'NONE',  ( -68.33153641321104000, 0.0000000000000000000, 9.500000000000001800 ) ) ;
#152 = DIRECTION ( 'NONE',  ( -1.000000000000000000, -0.0000000000000000000, -0.0000000000000000000 ) ) ;
#153 = DIRECTION ( 'NONE',  ( 0.0000000000000000000, 0.0000000000000000000, -1.000000000000000000 ) ) ;
#154 = DIRECTION ( 'NONE',  ( 1.000000000000000000, 0.0000000000000000000, 0.0000000000000000000 ) ) ;
#155 = CARTESIAN_POINT ( 'NONE',  ( 14.00000000000001200, 0.0000000000000000000, 0.0000000000000000000 ) ) ;
#156 = CARTESIAN_POINT ( 'NONE',  ( -13.80000000000000600, 0.0000000000000000000, 0.0000000000000000000 ) ) ;
#157 = DIRECTION ( 'NONE',  ( -1.000000000000000000, -0.0000000000000000000, -0.0000000000000000000 ) ) ;
#158 = CARTESIAN_POINT ( 'NONE',  ( -13.80000000000000600, 0.0000000000000000000, -9.300000000000000700 ) ) ;
#159 = DIRECTION ( 'NONE',  ( 0.0000000000000000000, 0.0000000000000000000, 1.000000000000000000 ) ) ;
#160 = DIRECTION ( 'NONE',  ( -1.000000000000000000, -0.0000000000000000000, -0.0000000000000000000 ) ) ;
#161 = DIRECTION ( 'NONE',  ( 0.0000000000000000000, 0.0000000000000000000, 1.000000000000000000 ) ) ;
#162 = CARTESIAN_POINT ( 'NONE',  ( 13.80000000000000600, 0.0000000000000000000, 0.0000000000000000000 ) ) ;
#163 = DIRECTION ( 'NONE',  ( -1.000000000000000000, -0.0000000000000000000, -0.0000000000000000000 ) ) ;
#164 = DIRECTION ( 'NONE',  ( 1.000000000000000000, 0.0000000000000000000, 0.0000000000000000000 ) ) ;
#165 = CARTESIAN_POINT ( 'NONE',  ( 13.80000000000000600, 0.0000000000000000000, 9.300000000000000700 ) ) ;
#166 = DIRECTION ( 'NONE',  ( 0.0000000000000000000, 0.0000000000000000000, 1.000000000000000000 ) ) ;
#167 = VERTEX_POINT ( 'NONE', #88 ) ;
#168 = DIRECTION ( 'NONE',  ( -1.000000000000000000, -0.0000000000000000000, -0.0000000000000000000 ) ) ;
#169 = VERTEX_POINT ( 'NONE', #210 ) ;
#170 = CARTESIAN_POINT ( 'NONE',  ( 14.00000000000001200, 0.0000000000000000000, 0.0000000000000000000 ) ) ;
#171 = DIRECTION ( 'NONE',  ( 0.0000000000000000000, 1.224646799147353200E-016, 1.000000000000000000 ) ) ;
#172 = DIRECTION ( 'NONE',  ( 0.0000000000000000000, 1.000000000000000000, -1.224646799147353200E-016 ) ) ;
#173 = CARTESIAN_POINT ( 'NONE',  ( -13.80000000000000600, 1.138921523207038600E-015, 9.300000000000000700 ) ) ;
#174 = DIRECTION ( 'NONE',  ( 0.0000000000000000000, 0.0000000000000000000, -1.000000000000000000 ) ) ;
#175 = DIRECTION ( 'NONE',  ( 0.0000000000000000000, 0.0000000000000000000, 1.000000000000000000 ) ) ;
#176 = DIRECTION ( 'NONE',  ( 0.0000000000000000000, 0.0000000000000000000, 1.000000000000000000 ) ) ;
#177 = CARTESIAN_POINT ( 'NONE',  ( -14.00000000000000500, 0.0000000000000000000, 0.0000000000000000000 ) ) ;
#178 = VERTEX_POINT ( 'NONE', #135 ) ;
#179 = DIRECTION ( 'NONE',  ( -1.000000000000000000, -0.0000000000000000000, -0.0000000000000000000 ) ) ;
#180 = DIRECTION ( 'NONE',  ( 0.0000000000000000000, -1.000000000000000000, 0.0000000000000000000 ) ) ;
#181 = DIRECTION ( 'NONE',  ( 0.0000000000000000000, 0.0000000000000000000, -1.000000000000000000 ) ) ;
#182 = CARTESIAN_POINT ( 'NONE',  ( 14.00000000000000400, 0.0000000000000000000, 0.0000000000000000000 ) ) ;
#183 = DIRECTION ( 'NONE',  ( 0.0000000000000000000, -1.000000000000000000, 0.0000000000000000000 ) ) ;
#184 = DIRECTION ( 'NONE',  ( 1.000000000000000000, 0.0000000000000000000, 0.0000000000000000000 ) ) ;
#185 = CARTESIAN_POINT ( 'NONE',  ( -14.00000000000000500, 6.000000000000000000, 0.0000000000000000000 ) ) ;
#186 = DIRECTION ( 'NONE',  ( -1.000000000000000000, -0.0000000000000000000, -0.0000000000000000000 ) ) ;
#187 = CARTESIAN_POINT ( 'NONE',  ( 14.00000000000000400, 0.0000000000000000000, 9.300000000000000700 ) ) ;
#188 = CARTESIAN_POINT ( 'NONE',  ( -13.80000000000000600, 0.0000000000000000000, 0.0000000000000000000 ) ) ;
#189 = CARTESIAN_POINT ( 'NONE',  ( -14.00000000000000500, 0.0000000000000000000, 0.0000000000000000000 ) ) ;
#190 = DIRECTION ( 'NONE',  ( 0.0000000000000000000, 0.0000000000000000000, -1.000000000000000000 ) ) ;
#191 = PLANE ( 'NONE',  #47 ) ;
#192 = DIRECTION ( 'NONE',  ( 0.0000000000000000000, 0.0000000000000000000, -1.000000000000000000 ) ) ;
#193 = CARTESIAN_POINT ( 'NONE',  ( -13.80000000000000600, 0.0000000000000000000, 9.500000000000001800 ) ) ;
#194 = DIRECTION ( 'NONE',  ( 0.0000000000000000000, 0.0000000000000000000, -1.000000000000000000 ) ) ;
#195 = DIRECTION ( 'NONE',  ( -1.000000000000000000, -0.0000000000000000000, -0.0000000000000000000 ) ) ;
#196 = DIRECTION ( 'NONE',  ( 0.0000000000000000000, 0.0000000000000000000, 1.000000000000000000 ) ) ;
#197 = CARTESIAN_POINT ( 'NONE',  ( -68.33153641321104000, 1.163414459189985700E-015, -9.500000000000001800 ) ) ;
#198 = VERTEX_POINT ( 'NONE', #209 ) ;
#199 = DIRECTION ( 'NONE',  ( 0.0000000000000000000, 0.0000000000000000000, 1.000000000000000000 ) ) ;
#200 = DIRECTION ( 'NONE',  ( -1.000000000000000000, -0.0000000000000000000, -0.0000000000000000000 ) ) ;
#201 = VERTEX_POINT ( 'NONE', #207 ) ;
#202 = CARTESIAN_POINT ( 'NONE',  ( -68.33153641321104000, 0.0000000000000000000, 6.000000000000001800 ) ) ;
#203 = VERTEX_POINT ( 'NONE', #205 ) ;
#204 = DIRECTION ( 'NONE',  ( 0.0000000000000000000, 0.0000000000000000000, -1.000000000000000000 ) ) ;
#205 = CARTESIAN_POINT ( 'NONE',  ( -14.00000000000000500, 0.0000000000000000000, -9.300000000000000700 ) ) ;
#206 = VERTEX_POINT ( 'NONE', #187 ) ;
#207 = CARTESIAN_POINT ( 'NONE',  ( -14.00000000000000500, 7.347880794884120700E-016, -6.000000000000000000 ) ) ;
#208 = VERTEX_POINT ( 'NONE', #89 ) ;
#209 = CARTESIAN_POINT ( 'NONE',  ( -14.00000000000000500, 0.0000000000000000000, 6.000000000000000000 ) ) ;
#210 = CARTESIAN_POINT ( 'NONE',  ( 14.00000000000000400, 1.151167991198511900E-015, -9.300000000000000700 ) ) ;
#211 = DIRECTION ( 'NONE',  ( -1.000000000000000000, -0.0000000000000000000, -0.0000000000000000000 ) ) ;
#212 = DIRECTION ( 'NONE',  ( 1.000000000000000000, 0.0000000000000000000, 0.0000000000000000000 ) ) ;
#213 = DIRECTION ( 'NONE',  ( -1.000000000000000000, -0.0000000000000000000, -0.0000000000000000000 ) ) ;
#214 = DIRECTION ( 'NONE',  ( 0.0000000000000000000, 0.0000000000000000000, 1.000000000000000000 ) ) ;
#215 = DIRECTION ( 'NONE',  ( 0.0000000000000000000, 0.0000000000000000000, 1.000000000000000000 ) ) ;
#216 = PRODUCT ( 'KH-1228', 'KH-1228', '', ( #134 ) ) ;
#217 = PERSON ( 'UNSPECIFIED', 'UNSPECIFIED', 'UNSPECIFIED', ('UNSPECIFIED'), ('UNSPECIFIED'), ('UNSPECIFIED') ) ;
#218 = PERSON_AND_ORGANIZATION ( #217, #263 ) ;
#219 = APPROVAL_DATE_TIME ( #222, #5 ) ;
#220 = PERSON_AND_ORGANIZATION ( #217, #263 ) ;
#221 = CALENDAR_DATE ( 2014, 8, 8 ) ;
#222 = DATE_AND_TIME ( #227, #223 ) ;
#223 = LOCAL_TIME ( 12, 12, 11.00000000000000000, #229 ) ;
#224 = COORDINATED_UNIVERSAL_TIME_OFFSET ( 2, 0, .AHEAD. ) ;
#225 = APPROVAL_PERSON_ORGANIZATION ( #220, #5, #110 ) ;
#226 = PERSON_AND_ORGANIZATION ( #217, #263 ) ;
#227 = CALENDAR_DATE ( 2014, 8, 8 ) ;
#228 = PERSON_AND_ORGANIZATION ( #217, #263 ) ;
#229 = COORDINATED_UNIVERSAL_TIME_OFFSET ( 2, 0, .AHEAD. ) ;
#230 = DATE_AND_TIME ( #221, #231 ) ;
#231 = LOCAL_TIME ( 12, 12, 11.00000000000000000, #224 ) ;
#232 = CIRCLE ( 'NONE', #41, 9.300000000000000700 ) ;
#233 = APPROVAL_DATE_TIME ( #342, #21 ) ;
#234 = LINE ( 'NONE', #139, #284 ) ;
#235 = CIRCLE ( 'NONE', #42, 9.500000000000001800 ) ;
#236 = LINE ( 'NONE', #151, #286 ) ;
#237 = LINE ( 'NONE', #197, #244 ) ;
#238 = CIRCLE ( 'NONE', #38, 9.500000000000001800 ) ;
#239 = CIRCLE ( 'NONE', #39, 0.2000000000000005100 ) ;
#240 = CALENDAR_DATE ( 2014, 8, 8 ) ;
#241 = CIRCLE ( 'NONE', #56, 6.000000000000000000 ) ;
#242 = CIRCLE ( 'NONE', #37, 9.300000000000000700 ) ;
#243 = CIRCLE ( 'NONE', #36, 6.000000000000003600 ) ;
#244 = VECTOR ( 'NONE', #200, 1000.000000000000000 ) ;
#245 = CIRCLE ( 'NONE', #35, 9.300000000000000700 ) ;
#246 = CYLINDRICAL_SURFACE ( 'NONE', #9, 6.000000000000001800 ) ;
#247 = CIRCLE ( 'NONE', #34, 6.000000000000000000 ) ;
#248 = LINE ( 'NONE', #202, #249 ) ;
#249 = VECTOR ( 'NONE', #97, 1000.000000000000000 ) ;
#250 = FACE_OUTER_BOUND ( 'NONE', #333, .T. ) ;
#251 = CIRCLE ( 'NONE', #11, 0.2000000000000005100 ) ;
#252 = CIRCLE ( 'NONE', #15, 9.500000000000001800 ) ;
#253 = ORIENTED_EDGE ( 'NONE', *, *, #52, .F. ) ;
#254 = ORIENTED_EDGE ( 'NONE', *, *, #66, .F. ) ;
#255 = ORIENTED_EDGE ( 'NONE', *, *, #71, .T. ) ;
#256 = ORIENTED_EDGE ( 'NONE', *, *, #61, .T. ) ;
#257 = ORIENTED_EDGE ( 'NONE', *, *, #59, .F. ) ;
#258 = ORIENTED_EDGE ( 'NONE', *, *, #71, .F. ) ;
#259 =( GEOMETRIC_REPRESENTATION_CONTEXT ( 3 ) GLOBAL_UNCERTAINTY_ASSIGNED_CONTEXT ( ( #33 ) ) GLOBAL_UNIT_ASSIGNED_CONTEXT ( ( #137, #140, #130 ) ) REPRESENTATION_CONTEXT ( 'NONE', 'WORKASPACE' ) );
#260 = EDGE_LOOP ( 'NONE', ( #310, #312, #325, #327 ) ) ;
#261 = SHAPE_DEFINITION_REPRESENTATION ( #78, #32 ) ;
#262 = ORIENTED_EDGE ( 'NONE', *, *, #54, .F. ) ;
#263 = ORGANIZATION ( 'UNSPECIFIED', 'UNSPECIFIED', '' ) ;
#264 = PERSON_AND_ORGANIZATION ( #217, #263 ) ;
#265 = PERSON_AND_ORGANIZATION ( #217, #263 ) ;
#266 = APPROVAL_PERSON_ORGANIZATION ( #265, #4, #122 ) ;
#267 = CYLINDRICAL_SURFACE ( 'NONE', #48, 9.500000000000001800 ) ;
#268 = TOROIDAL_SURFACE ( 'NONE', #51, 9.300000000000000700, 0.2000000000000000100 ) ;
#269 = CYLINDRICAL_SURFACE ( 'NONE', #49, 9.500000000000001800 ) ;
#270 = FACE_OUTER_BOUND ( 'NONE', #321, .T. ) ;
#271 = FACE_OUTER_BOUND ( 'NONE', #319, .T. ) ;
#272 = TOROIDAL_SURFACE ( 'NONE', #72, 9.300000000000000700, 0.2000000000000000100 ) ;
#273 = FACE_OUTER_BOUND ( 'NONE', #324, .T. ) ;
#274 = FACE_OUTER_BOUND ( 'NONE', #320, .T. ) ;
#275 = FACE_OUTER_BOUND ( 'NONE', #298, .T. ) ;
#276 = FACE_OUTER_BOUND ( 'NONE', #332, .T. ) ;
#277 = FACE_OUTER_BOUND ( 'NONE', #260, .T. ) ;
#278 = ORIENTED_EDGE ( 'NONE', *, *, #63, .F. ) ;
#279 = TOROIDAL_SURFACE ( 'NONE', #76, 9.300000000000000700, 0.2000000000000000100 ) ;
#280 = FACE_BOUND ( 'NONE', #323, .T. ) ;
#281 = ORIENTED_EDGE ( 'NONE', *, *, #58, .F. ) ;
#282 = ORIENTED_EDGE ( 'NONE', *, *, #60, .F. ) ;
#283 = ORIENTED_EDGE ( 'NONE', *, *, #55, .F. ) ;
#284 = VECTOR ( 'NONE', #157, 1000.000000000000000 ) ;
#285 = FACE_BOUND ( 'NONE', #334, .T. ) ;
#286 = VECTOR ( 'NONE', #163, 1000.000000000000000 ) ;
#287 = CYLINDRICAL_SURFACE ( 'NONE', #43, 6.000000000000001800 ) ;
#288 = FACE_OUTER_BOUND ( 'NONE', #331, .T. ) ;
#289 = FACE_OUTER_BOUND ( 'NONE', #299, .T. ) ;
#290 = ORIENTED_EDGE ( 'NONE', *, *, #69, .F. ) ;
#291 = ORIENTED_EDGE ( 'NONE', *, *, #65, .T. ) ;
#292 = ORIENTED_EDGE ( 'NONE', *, *, #59, .T. ) ;
#293 = ORIENTED_EDGE ( 'NONE', *, *, #66, .T. ) ;
#294 = ORIENTED_EDGE ( 'NONE', *, *, #55, .T. ) ;
#295 = CLOSED_SHELL ( 'NONE', ( #24, #23, #353, #26, #25, #30, #31, #27, #28, #29 ) ) ;
#296 = ORIENTED_EDGE ( 'NONE', *, *, #68, .T. ) ;
#297 = ORIENTED_EDGE ( 'NONE', *, *, #70, .F. ) ;
#298 = EDGE_LOOP ( 'NONE', ( #317, #254, #318, #314 ) ) ;
#299 = EDGE_LOOP ( 'NONE', ( #258, #351, #335, #253 ) ) ;
#300 = DATE_AND_TIME ( #301, #302 ) ;
#301 = CALENDAR_DATE ( 2014, 8, 8 ) ;
#302 = LOCAL_TIME ( 12, 12, 11.00000000000000000, #311 ) ;
#303 = COORDINATED_UNIVERSAL_TIME_OFFSET ( 2, 0, .AHEAD. ) ;
#304 = PERSON_AND_ORGANIZATION ( #217, #263 ) ;
#305 = ORIENTED_EDGE ( 'NONE', *, *, #53, .F. ) ;
#306 = APPROVAL_DATE_TIME ( #300, #4 ) ;
#307 = LOCAL_TIME ( 12, 12, 11.00000000000000000, #303 ) ;
#308 = LOCAL_TIME ( 12, 12, 11.00000000000000000, #344 ) ;
#309 = CALENDAR_DATE ( 2014, 8, 8 ) ;
#310 = ORIENTED_EDGE ( 'NONE', *, *, #60, .T. ) ;
#311 = COORDINATED_UNIVERSAL_TIME_OFFSET ( 2, 0, .AHEAD. ) ;
#312 = ORIENTED_EDGE ( 'NONE', *, *, #69, .T. ) ;
#313 = ORIENTED_EDGE ( 'NONE', *, *, #73, .F. ) ;
#314 = ORIENTED_EDGE ( 'NONE', *, *, #64, .T. ) ;
#315 = ORIENTED_EDGE ( 'NONE', *, *, #67, .T. ) ;
#316 = ORIENTED_EDGE ( 'NONE', *, *, #64, .F. ) ;
#317 = ORIENTED_EDGE ( 'NONE', *, *, #61, .F. ) ;
#318 = ORIENTED_EDGE ( 'NONE', *, *, #70, .T. ) ;
#319 = EDGE_LOOP ( 'NONE', ( #315, #336 ) ) ;
#320 = EDGE_LOOP ( 'NONE', ( #290, #329, #328, #330 ) ) ;
#321 = EDGE_LOOP ( 'NONE', ( #257, #255, #282, #281 ) ) ;
#322 = TOROIDAL_SURFACE ( 'NONE', #75, 9.300000000000000700, 0.2000000000000000100 ) ;
#323 = EDGE_LOOP ( 'NONE', ( #316, #339 ) ) ;
#324 = EDGE_LOOP ( 'NONE', ( #262, #346, #337, #338 ) ) ;
#325 = ORIENTED_EDGE ( 'NONE', *, *, #73, .T. ) ;
#326 = ORIENTED_EDGE ( 'NONE', *, *, #54, .T. ) ;
#327 = ORIENTED_EDGE ( 'NONE', *, *, #57, .F. ) ;
#328 = ORIENTED_EDGE ( 'NONE', *, *, #57, .T. ) ;
#329 = ORIENTED_EDGE ( 'NONE', *, *, #52, .T. ) ;
#330 = ORIENTED_EDGE ( 'NONE', *, *, #62, .T. ) ;
#331 = EDGE_LOOP ( 'NONE', ( #291, #292 ) ) ;
#332 = EDGE_LOOP ( 'NONE', ( #305, #326, #313, #278 ) ) ;
#333 = EDGE_LOOP ( 'NONE', ( #283, #256, #296, #297 ) ) ;
#334 = EDGE_LOOP ( 'NONE', ( #293, #294 ) ) ;
#335 = ORIENTED_EDGE ( 'NONE', *, *, #58, .T. ) ;
#336 = ORIENTED_EDGE ( 'NONE', *, *, #53, .T. ) ;
#337 = ORIENTED_EDGE ( 'NONE', *, *, #63, .T. ) ;
#338 = ORIENTED_EDGE ( 'NONE', *, *, #62, .F. ) ;
#339 = ORIENTED_EDGE ( 'NONE', *, *, #68, .F. ) ;
#340 = CIRCLE ( 'NONE', #50, 0.2000000000000005100 ) ;
#341 = CIRCLE ( 'NONE', #74, 6.000000000000003600 ) ;
#342 = DATE_AND_TIME ( #240, #308 ) ;
#343 = CIRCLE ( 'NONE', #45, 9.300000000000000700 ) ;
#344 = COORDINATED_UNIVERSAL_TIME_OFFSET ( 2, 0, .AHEAD. ) ;
#345 = CIRCLE ( 'NONE', #40, 0.2000000000000005100 ) ;
#346 = ORIENTED_EDGE ( 'NONE', *, *, #67, .F. ) ;
#347 = DATE_AND_TIME ( #309, #307 ) ;
#348 = APPROVAL_PERSON_ORGANIZATION ( #349, #21, #118 ) ;
#349 = PERSON_AND_ORGANIZATION ( #217, #263 ) ;
#350 = CIRCLE ( 'NONE', #46, 9.500000000000001800 ) ;
#351 = ORIENTED_EDGE ( 'NONE', *, *, #65, .F. ) ;
#352 = MANIFOLD_SOLID_BREP ( 'Fillet1', #295 ) ;
#353 = ADVANCED_FACE ( 'NONE', ( #250 ), #246, .F. ) ;
ENDSEC;
END-ISO-10303-21;
