ISO-10303-21;
HEADER;
FILE_DESCRIPTION (( 'STEP AP203' ),
    '1' );
FILE_NAME ('KH-0622.STEP',
    '2014-07-21T08:00:19',
    ( 'Ovidiu Buiga' ),
    ( '' ),
    'SwSTEP 2.0',
    'SolidWorks 2010',
    '' );
FILE_SCHEMA (( 'CONFIG_CONTROL_DESIGN' ));
ENDSEC;

DATA;
#1 = PRODUCT_DEFINITION_SHAPE ( 'NONE', 'NONE',  #276 ) ;
#2 = DESIGN_CONTEXT ( 'detailed design', #176, 'design' ) ;
#3 = VERTEX_POINT ( 'NONE', #6 ) ;
#4 = ORIENTED_EDGE ( 'NONE', *, *, #239, .T. ) ;
#5 = ORIENTED_EDGE ( 'NONE', *, *, #229, .F. ) ;
#6 = CARTESIAN_POINT ( 'NONE',  ( -10.99999999999999800, 0.0000000000000000000, -5.800000000000000700 ) ) ;
#7 = ORIENTED_EDGE ( 'NONE', *, *, #257, .F. ) ;
#8 = ORIENTED_EDGE ( 'NONE', *, *, #255, .T. ) ;
#9 = ORIENTED_EDGE ( 'NONE', *, *, #254, .F. ) ;
#10 = ORIENTED_EDGE ( 'NONE', *, *, #245, .F. ) ;
#11 = ORIENTED_EDGE ( 'NONE', *, *, #237, .T. ) ;
#12 = ORIENTED_EDGE ( 'NONE', *, *, #252, .F. ) ;
#13 = ORIENTED_EDGE ( 'NONE', *, *, #229, .T. ) ;
#14 = ORIENTED_EDGE ( 'NONE', *, *, #246, .T. ) ;
#15 = ORIENTED_EDGE ( 'NONE', *, *, #245, .T. ) ;
#16 = ORIENTED_EDGE ( 'NONE', *, *, #232, .F. ) ;
#17 = ORIENTED_EDGE ( 'NONE', *, *, #246, .F. ) ;
#18 = ORIENTED_EDGE ( 'NONE', *, *, #241, .T. ) ;
#19 = ORIENTED_EDGE ( 'NONE', *, *, #232, .T. ) ;
#20 = ORIENTED_EDGE ( 'NONE', *, *, #250, .T. ) ;
#21 = ORIENTED_EDGE ( 'NONE', *, *, #256, .T. ) ;
#22 = ORIENTED_EDGE ( 'NONE', *, *, #257, .T. ) ;
#23 = ORIENTED_EDGE ( 'NONE', *, *, #231, .T. ) ;
#24 = ORIENTED_EDGE ( 'NONE', *, *, #254, .T. ) ;
#25 = ORIENTED_EDGE ( 'NONE', *, *, #255, .F. ) ;
#26 = ORIENTED_EDGE ( 'NONE', *, *, #231, .F. ) ;
#27 = ORIENTED_EDGE ( 'NONE', *, *, #252, .T. ) ;
#28 = ORIENTED_EDGE ( 'NONE', *, *, #235, .T. ) ;
#29 = ORIENTED_EDGE ( 'NONE', *, *, #249, .T. ) ;
#30 = ORIENTED_EDGE ( 'NONE', *, *, #240, .T. ) ;
#31 = ORIENTED_EDGE ( 'NONE', *, *, #235, .F. ) ;
#32 = ORIENTED_EDGE ( 'NONE', *, *, #237, .F. ) ;
#33 = ORIENTED_EDGE ( 'NONE', *, *, #239, .F. ) ;
#34 = ORIENTED_EDGE ( 'NONE', *, *, #249, .F. ) ;
#35 = ORIENTED_EDGE ( 'NONE', *, *, #251, .T. ) ;
#36 = CYLINDRICAL_SURFACE ( 'NONE', #228, 6.000000000000000000 ) ;
#37 = CLOSED_SHELL ( 'NONE', ( #224, #227, #226, #222, #223, #225, #84, #332, #333, #334 ) ) ;
#38 = CYLINDRICAL_SURFACE ( 'NONE', #264, 3.000000000000001300 ) ;
#39 = EDGE_LOOP ( 'NONE', ( #31, #32 ) ) ;
#40 = EDGE_LOOP ( 'NONE', ( #29, #30 ) ) ;
#41 = EDGE_LOOP ( 'NONE', ( #9, #8, #11, #12 ) ) ;
#42 = EDGE_LOOP ( 'NONE', ( #33, #34, #35, #310 ) ) ;
#43 = EDGE_LOOP ( 'NONE', ( #7, #317, #5, #83 ) ) ;
#44 = EDGE_LOOP ( 'NONE', ( #318, #4, #10, #82 ) ) ;
#45 = EDGE_LOOP ( 'NONE', ( #13, #14, #15, #16 ) ) ;
#46 = EDGE_LOOP ( 'NONE', ( #17, #18, #19, #20 ) ) ;
#47 = VERTEX_POINT ( 'NONE', #325 ) ;
#48 = VERTEX_POINT ( 'NONE', #55 ) ;
#49 = VERTEX_POINT ( 'NONE', #329 ) ;
#50 = VERTEX_POINT ( 'NONE', #56 ) ;
#51 = VERTEX_POINT ( 'NONE', #324 ) ;
#52 = VERTEX_POINT ( 'NONE', #57 ) ;
#53 = CARTESIAN_POINT ( 'NONE',  ( -68.33153641321104000, 0.0000000000000000000, 0.0000000000000000000 ) ) ;
#54 = DIRECTION ( 'NONE',  ( 0.0000000000000000000, 0.0000000000000000000, 1.000000000000000000 ) ) ;
#55 = CARTESIAN_POINT ( 'NONE',  ( -10.79999999999999700, 7.347880794884119700E-016, -6.000000000000000000 ) ) ;
#56 = CARTESIAN_POINT ( 'NONE',  ( 10.99999999999999600, 0.0000000000000000000, 3.000000000000002700 ) ) ;
#57 = CARTESIAN_POINT ( 'NONE',  ( -10.99999999999999600, 0.0000000000000000000, 3.000000000000000000 ) ) ;
#58 = DIRECTION ( 'NONE',  ( -1.000000000000000000, -0.0000000000000000000, -0.0000000000000000000 ) ) ;
#59 = EDGE_LOOP ( 'NONE', ( #25, #26, #27, #28 ) ) ;
#60 = EDGE_LOOP ( 'NONE', ( #21, #22 ) ) ;
#61 = FACE_OUTER_BOUND ( 'NONE', #45, .T. ) ;
#62 = FACE_OUTER_BOUND ( 'NONE', #46, .T. ) ;
#63 = FACE_OUTER_BOUND ( 'NONE', #59, .T. ) ;
#64 = FACE_OUTER_BOUND ( 'NONE', #43, .T. ) ;
#65 = CYLINDRICAL_SURFACE ( 'NONE', #244, 6.000000000000000000 ) ;
#66 = DIRECTION ( 'NONE',  ( -1.000000000000000000, -0.0000000000000000000, -0.0000000000000000000 ) ) ;
#67 = CARTESIAN_POINT ( 'NONE',  ( -68.33153641321104000, 0.0000000000000000000, 0.0000000000000000000 ) ) ;
#68 = DIRECTION ( 'NONE',  ( 0.0000000000000000000, 0.0000000000000000000, 1.000000000000000000 ) ) ;
#69 = CARTESIAN_POINT ( 'NONE',  ( -68.33153641321104000, 0.0000000000000000000, 0.0000000000000000000 ) ) ;
#70 = DIRECTION ( 'NONE',  ( -1.000000000000000000, -0.0000000000000000000, -0.0000000000000000000 ) ) ;
#71 = DIRECTION ( 'NONE',  ( -1.000000000000000000, -0.0000000000000000000, -0.0000000000000000000 ) ) ;
#72 = DIRECTION ( 'NONE',  ( 0.0000000000000000000, 0.0000000000000000000, 1.000000000000000000 ) ) ;
#73 = CARTESIAN_POINT ( 'NONE',  ( 10.80000000000000400, 0.0000000000000000000, 0.0000000000000000000 ) ) ;
#74 = CIRCLE ( 'NONE', #269, 5.800000000000000700 ) ;
#75 = FACE_OUTER_BOUND ( 'NONE', #60, .T. ) ;
#76 = TOROIDAL_SURFACE ( 'NONE', #253, 5.800000000000000700, 0.2000000000000000100 ) ;
#77 = FACE_OUTER_BOUND ( 'NONE', #41, .T. ) ;
#78 = FACE_BOUND ( 'NONE', #314, .T. ) ;
#79 = FACE_OUTER_BOUND ( 'NONE', #44, .T. ) ;
#80 = TOROIDAL_SURFACE ( 'NONE', #247, 5.800000000000000700, 0.2000000000000000100 ) ;
#81 = CYLINDRICAL_SURFACE ( 'NONE', #243, 3.000000000000001300 ) ;
#82 = ORIENTED_EDGE ( 'NONE', *, *, #251, .F. ) ;
#83 = ORIENTED_EDGE ( 'NONE', *, *, #248, .F. ) ;
#84 = ADVANCED_FACE ( 'NONE', ( #63 ), #38, .F. ) ;
#85 = DIRECTION ( 'NONE',  ( -1.000000000000000000, -0.0000000000000000000, -0.0000000000000000000 ) ) ;
#86 = CARTESIAN_POINT ( 'NONE',  ( -68.33153641321104000, 0.0000000000000000000, 0.0000000000000000000 ) ) ;
#87 = DIRECTION ( 'NONE',  ( 0.0000000000000000000, 0.0000000000000000000, 1.000000000000000000 ) ) ;
#88 = PLANE ( 'NONE',  #242 ) ;
#89 = DIRECTION ( 'NONE',  ( 0.0000000000000000000, 0.0000000000000000000, 1.000000000000000000 ) ) ;
#90 = CARTESIAN_POINT ( 'NONE',  ( 10.99999999999999800, 6.000000000000001800, 0.0000000000000000000 ) ) ;
#91 = DIRECTION ( 'NONE',  ( -1.000000000000000000, 0.0000000000000000000, -0.0000000000000000000 ) ) ;
#92 = DIRECTION ( 'NONE',  ( -0.0000000000000000000, 0.0000000000000000000, 1.000000000000000000 ) ) ;
#93 = DIRECTION ( 'NONE',  ( -0.0000000000000000000, 1.000000000000000000, 1.224646799147353200E-016 ) ) ;
#94 = CARTESIAN_POINT ( 'NONE',  ( -10.79999999999999700, 0.0000000000000000000, 0.0000000000000000000 ) ) ;
#95 = CARTESIAN_POINT ( 'NONE',  ( 10.80000000000000400, 0.0000000000000000000, 0.0000000000000000000 ) ) ;
#96 = CARTESIAN_POINT ( 'NONE',  ( -68.33153641321104000, 0.0000000000000000000, 6.000000000000000000 ) ) ;
#97 = DIRECTION ( 'NONE',  ( 1.000000000000000000, 0.0000000000000000000, 0.0000000000000000000 ) ) ;
#98 = DIRECTION ( 'NONE',  ( 0.0000000000000000000, 0.0000000000000000000, -1.000000000000000000 ) ) ;
#99 = DIRECTION ( 'NONE',  ( 0.0000000000000000000, 0.0000000000000000000, -1.000000000000000000 ) ) ;
#100 = DIRECTION ( 'NONE',  ( -1.000000000000000000, -0.0000000000000000000, -0.0000000000000000000 ) ) ;
#101 = DIRECTION ( 'NONE',  ( 0.0000000000000000000, 0.0000000000000000000, 1.000000000000000000 ) ) ;
#102 = CARTESIAN_POINT ( 'NONE',  ( 10.80000000000000400, 7.102951435054648700E-016, -5.800000000000000700 ) ) ;
#103 = CIRCLE ( 'NONE', #233, 6.000000000000000000 ) ;
#104 = LINE ( 'NONE', #96, #107 ) ;
#105 = CIRCLE ( 'NONE', #236, 0.1999999999999996500 ) ;
#106 = CIRCLE ( 'NONE', #238, 3.000000000000002700 ) ;
#107 = VECTOR ( 'NONE', #298, 1000.000000000000000 ) ;
#108 = VECTOR ( 'NONE', #353, 1000.000000000000000 ) ;
#109 = LINE ( 'NONE', #341, #114 ) ;
#110 = CIRCLE ( 'NONE', #259, 3.000000000000000000 ) ;
#111 = CIRCLE ( 'NONE', #260, 3.000000000000000000 ) ;
#112 = CIRCLE ( 'NONE', #258, 0.1999999999999996500 ) ;
#113 = CIRCLE ( 'NONE', #261, 5.800000000000000700 ) ;
#114 = VECTOR ( 'NONE', #342, 1000.000000000000000 ) ;
#115 = CIRCLE ( 'NONE', #262, 6.000000000000000000 ) ;
#116 = CIRCLE ( 'NONE', #268, 0.1999999999999996500 ) ;
#117 = CIRCLE ( 'NONE', #263, 6.000000000000000000 ) ;
#118 = CIRCLE ( 'NONE', #266, 0.1999999999999996500 ) ;
#119 = LINE ( 'NONE', #131, #145 ) ;
#120 = CIRCLE ( 'NONE', #234, 5.800000000000000700 ) ;
#121 = FACE_BOUND ( 'NONE', #39, .T. ) ;
#122 = CIRCLE ( 'NONE', #267, 6.000000000000000000 ) ;
#123 = LINE ( 'NONE', #350, #108 ) ;
#124 = CARTESIAN_POINT ( 'NONE',  ( 10.99999999999999800, 0.0000000000000000000, 0.0000000000000000000 ) ) ;
#125 = DIRECTION ( 'NONE',  ( 0.0000000000000000000, -1.000000000000000000, 0.0000000000000000000 ) ) ;
#126 = DIRECTION ( 'NONE',  ( 0.0000000000000000000, 0.0000000000000000000, -1.000000000000000000 ) ) ;
#127 = CARTESIAN_POINT ( 'NONE',  ( 10.99999999999999600, 0.0000000000000000000, 0.0000000000000000000 ) ) ;
#128 = CARTESIAN_POINT ( 'NONE',  ( -10.99999999999999800, 3.000000000000000000, 0.0000000000000000000 ) ) ;
#129 = DIRECTION ( 'NONE',  ( -1.000000000000000000, -0.0000000000000000000, -0.0000000000000000000 ) ) ;
#130 = DIRECTION ( 'NONE',  ( 0.0000000000000000000, 0.0000000000000000000, 1.000000000000000000 ) ) ;
#131 = CARTESIAN_POINT ( 'NONE',  ( -68.33153641321104000, 3.673940397442061300E-016, -3.000000000000001300 ) ) ;
#132 = DIRECTION ( 'NONE',  ( -1.000000000000000000, -0.0000000000000000000, -0.0000000000000000000 ) ) ;
#133 = CARTESIAN_POINT ( 'NONE',  ( 10.80000000000000400, 0.0000000000000000000, 6.000000000000000000 ) ) ;
#134 = DIRECTION ( 'NONE',  ( 1.000000000000000000, 0.0000000000000000000, 0.0000000000000000000 ) ) ;
#135 = DIRECTION ( 'NONE',  ( 0.0000000000000000000, 0.0000000000000000000, 1.000000000000000000 ) ) ;
#136 = CARTESIAN_POINT ( 'NONE',  ( 10.99999999999999800, 0.0000000000000000000, 0.0000000000000000000 ) ) ;
#137 = CARTESIAN_POINT ( 'NONE',  ( 10.99999999999999800, 0.0000000000000000000, 5.800000000000000700 ) ) ;
#138 = DIRECTION ( 'NONE',  ( 1.000000000000000000, 0.0000000000000000000, 0.0000000000000000000 ) ) ;
#139 = DIRECTION ( 'NONE',  ( 0.0000000000000000000, 0.0000000000000000000, 1.000000000000000000 ) ) ;
#140 = PLANE ( 'NONE',  #272 ) ;
#141 = CARTESIAN_POINT ( 'NONE',  ( 10.99999999999999800, 7.225416114969384200E-016, -5.800000000000000700 ) ) ;
#142 = CARTESIAN_POINT ( 'NONE',  ( -10.99999999999999800, 7.225416114969384200E-016, 5.800000000000000700 ) ) ;
#143 = FACE_OUTER_BOUND ( 'NONE', #40, .T. ) ;
#144 = CIRCLE ( 'NONE', #270, 3.000000000000002700 ) ;
#145 = VECTOR ( 'NONE', #132, 1000.000000000000000 ) ;
#146 = CIRCLE ( 'NONE', #271, 5.800000000000000700 ) ;
#147 = FACE_OUTER_BOUND ( 'NONE', #42, .T. ) ;
#148 = CARTESIAN_POINT ( 'NONE',  ( 10.80000000000000400, 7.347880794884119700E-016, -6.000000000000000000 ) ) ;
#149 = DIRECTION ( 'NONE',  ( 0.0000000000000000000, 0.0000000000000000000, 1.000000000000000000 ) ) ;
#150 = DIRECTION ( 'NONE',  ( 1.000000000000000000, 0.0000000000000000000, 0.0000000000000000000 ) ) ;
#151 = CARTESIAN_POINT ( 'NONE',  ( -10.79999999999999700, 0.0000000000000000000, 0.0000000000000000000 ) ) ;
#152 = DIRECTION ( 'NONE',  ( 1.000000000000000000, 0.0000000000000000000, 0.0000000000000000000 ) ) ;
#153 = DIRECTION ( 'NONE',  ( 0.0000000000000000000, 0.0000000000000000000, -1.000000000000000000 ) ) ;
#154 = CARTESIAN_POINT ( 'NONE',  ( 10.80000000000000400, 0.0000000000000000000, 0.0000000000000000000 ) ) ;
#155 = DIRECTION ( 'NONE',  ( -1.000000000000000000, -0.0000000000000000000, -0.0000000000000000000 ) ) ;
#156 = DIRECTION ( 'NONE',  ( 0.0000000000000000000, 0.0000000000000000000, -1.000000000000000000 ) ) ;
#157 =( LENGTH_UNIT ( ) NAMED_UNIT ( * ) SI_UNIT ( .MILLI., .METRE. ) );
#158 = DIRECTION ( 'NONE',  ( 0.0000000000000000000, 0.0000000000000000000, 1.000000000000000000 ) ) ;
#159 =( NAMED_UNIT ( * ) PLANE_ANGLE_UNIT ( ) SI_UNIT ( $, .RADIAN. ) );
#160 =( NAMED_UNIT ( * ) SI_UNIT ( $, .STERADIAN. ) SOLID_ANGLE_UNIT ( ) );
#161 = CARTESIAN_POINT ( 'NONE',  ( 0.0000000000000000000, 0.0000000000000000000, 0.0000000000000000000 ) ) ;
#162 = DIRECTION ( 'NONE',  ( 1.000000000000000000, 0.0000000000000000000, 0.0000000000000000000 ) ) ;
#163 = TOROIDAL_SURFACE ( 'NONE', #273, 5.800000000000000700, 0.2000000000000000100 ) ;
#164 = FACE_OUTER_BOUND ( 'NONE', #311, .T. ) ;
#165 = TOROIDAL_SURFACE ( 'NONE', #265, 5.800000000000000700, 0.2000000000000000100 ) ;
#166 =( GEOMETRIC_REPRESENTATION_CONTEXT ( 3 ) GLOBAL_UNCERTAINTY_ASSIGNED_CONTEXT ( ( #322 ) ) GLOBAL_UNIT_ASSIGNED_CONTEXT ( ( #157, #159, #160 ) ) REPRESENTATION_CONTEXT ( 'NONE', 'WORKASPACE' ) );
#167 = SHAPE_DEFINITION_REPRESENTATION ( #1, #321 ) ;
#168 = ORGANIZATION ( 'UNSPECIFIED', 'UNSPECIFIED', '' ) ;
#169 = PERSON_AND_ORGANIZATION ( #320, #168 ) ;
#170 = PERSON_AND_ORGANIZATION ( #320, #168 ) ;
#171 = APPROVAL_PERSON_ORGANIZATION ( #170, #277, #179 ) ;
#172 = APPLICATION_CONTEXT ( 'configuration controlled 3d designs of mechanical parts and assemblies' ) ;
#173 = APPLICATION_PROTOCOL_DEFINITION ( 'international standard', 'config_control_design', 1994, #172 ) ;
#174 = MECHANICAL_CONTEXT ( 'NONE', #172, 'mechanical' ) ;
#175 = PERSON_AND_ORGANIZATION_ROLE ( 'design_owner' ) ;
#176 = APPLICATION_CONTEXT ( 'configuration controlled 3d designs of mechanical parts and assemblies' ) ;
#177 = APPLICATION_PROTOCOL_DEFINITION ( 'international standard', 'config_control_design', 1994, #176 ) ;
#178 = APPROVAL_STATUS ( 'not_yet_approved' ) ;
#179 = APPROVAL_ROLE ( '' ) ;
#180 = PERSON_AND_ORGANIZATION_ROLE ( 'creator' ) ;
#181 = DATE_TIME_ROLE ( 'creation_date' ) ;
#182 = APPROVAL_STATUS ( 'not_yet_approved' ) ;
#183 = APPROVAL_ROLE ( '' ) ;
#184 = PERSON_AND_ORGANIZATION_ROLE ( 'creator' ) ;
#185 = PERSON_AND_ORGANIZATION_ROLE ( 'design_supplier' ) ;
#186 = SECURITY_CLASSIFICATION_LEVEL ( 'unclassified' ) ;
#187 = PERSON_AND_ORGANIZATION_ROLE ( 'classification_officer' ) ;
#188 = DATE_TIME_ROLE ( 'classification_date' ) ;
#189 = APPROVAL_STATUS ( 'not_yet_approved' ) ;
#190 = APPROVAL_ROLE ( '' ) ;
#191 = COORDINATED_UNIVERSAL_TIME_OFFSET ( 2, 0, .AHEAD. ) ;
#192 = LOCAL_TIME ( 11, 0, 19.00000000000000000, #191 ) ;
#193 = CALENDAR_DATE ( 2014, 21, 7 ) ;
#194 = DATE_AND_TIME ( #193, #192 ) ;
#195 = APPROVAL_DATE_TIME ( #194, #277 ) ;
#196 = PERSON_AND_ORGANIZATION ( #320, #168 ) ;
#197 = COORDINATED_UNIVERSAL_TIME_OFFSET ( 2, 0, .AHEAD. ) ;
#198 = LOCAL_TIME ( 11, 0, 19.00000000000000000, #197 ) ;
#199 = CALENDAR_DATE ( 2014, 21, 7 ) ;
#200 = DATE_AND_TIME ( #199, #198 ) ;
#201 = PERSON_AND_ORGANIZATION ( #320, #168 ) ;
#202 = APPROVAL_PERSON_ORGANIZATION ( #201, #282, #183 ) ;
#203 = COORDINATED_UNIVERSAL_TIME_OFFSET ( 2, 0, .AHEAD. ) ;
#204 = LOCAL_TIME ( 11, 0, 19.00000000000000000, #203 ) ;
#205 = CALENDAR_DATE ( 2014, 21, 7 ) ;
#206 = DATE_AND_TIME ( #205, #204 ) ;
#207 = APPROVAL_DATE_TIME ( #206, #282 ) ;
#208 = PERSON_AND_ORGANIZATION ( #320, #168 ) ;
#209 = PERSON_AND_ORGANIZATION ( #320, #168 ) ;
#210 = PERSON_AND_ORGANIZATION ( #320, #168 ) ;
#211 = COORDINATED_UNIVERSAL_TIME_OFFSET ( 2, 0, .AHEAD. ) ;
#212 = LOCAL_TIME ( 11, 0, 19.00000000000000000, #211 ) ;
#213 = CALENDAR_DATE ( 2014, 21, 7 ) ;
#214 = DATE_AND_TIME ( #213, #212 ) ;
#215 = PERSON_AND_ORGANIZATION ( #320, #168 ) ;
#216 = APPROVAL_PERSON_ORGANIZATION ( #215, #289, #190 ) ;
#217 = COORDINATED_UNIVERSAL_TIME_OFFSET ( 2, 0, .AHEAD. ) ;
#218 = LOCAL_TIME ( 11, 0, 19.00000000000000000, #217 ) ;
#219 = CALENDAR_DATE ( 2014, 21, 7 ) ;
#220 = DATE_AND_TIME ( #219, #218 ) ;
#221 = APPROVAL_DATE_TIME ( #220, #289 ) ;
#222 = ADVANCED_FACE ( 'NONE', ( #61 ), #65, .T. ) ;
#223 = ADVANCED_FACE ( 'NONE', ( #62 ), #36, .T. ) ;
#224 = ADVANCED_FACE ( 'NONE', ( #64 ), #76, .T. ) ;
#225 = ADVANCED_FACE ( 'NONE', ( #75, #78 ), #88, .F. ) ;
#226 = ADVANCED_FACE ( 'NONE', ( #77 ), #81, .F. ) ;
#227 = ADVANCED_FACE ( 'NONE', ( #79 ), #80, .T. ) ;
#228 = AXIS2_PLACEMENT_3D ( 'NONE', #53, #58, #54 ) ;
#229 = EDGE_CURVE ( 'NONE', #326, #330, #103, .T. ) ;
#230 = EDGE_CURVE ( 'NONE', #328, #330, #105, .T. ) ;
#231 = EDGE_CURVE ( 'NONE', #50, #49, #106, .T. ) ;
#232 = EDGE_CURVE ( 'NONE', #326, #47, #104, .T. ) ;
#233 = AXIS2_PLACEMENT_3D ( 'NONE', #95, #100, #101 ) ;
#234 = AXIS2_PLACEMENT_3D ( 'NONE', #346, #348, #349 ) ;
#235 = EDGE_CURVE ( 'NONE', #52, #51, #110, .T. ) ;
#236 = AXIS2_PLACEMENT_3D ( 'NONE', #102, #93, #293 ) ;
#237 = EDGE_CURVE ( 'NONE', #51, #52, #111, .T. ) ;
#238 = AXIS2_PLACEMENT_3D ( 'NONE', #294, #295, #296 ) ;
#239 = EDGE_CURVE ( 'NONE', #327, #47, #112, .T. ) ;
#240 = EDGE_CURVE ( 'NONE', #327, #3, #113, .T. ) ;
#241 = EDGE_CURVE ( 'NONE', #330, #326, #115, .T. ) ;
#242 = AXIS2_PLACEMENT_3D ( 'NONE', #90, #91, #92 ) ;
#243 = AXIS2_PLACEMENT_3D ( 'NONE', #86, #85, #89 ) ;
#244 = AXIS2_PLACEMENT_3D ( 'NONE', #69, #71, #72 ) ;
#245 = EDGE_CURVE ( 'NONE', #48, #47, #117, .T. ) ;
#246 = EDGE_CURVE ( 'NONE', #330, #48, #109, .T. ) ;
#247 = AXIS2_PLACEMENT_3D ( 'NONE', #94, #97, #98 ) ;
#248 = EDGE_CURVE ( 'NONE', #331, #326, #118, .T. ) ;
#249 = EDGE_CURVE ( 'NONE', #3, #327, #120, .T. ) ;
#250 = EDGE_CURVE ( 'NONE', #47, #48, #122, .T. ) ;
#251 = EDGE_CURVE ( 'NONE', #3, #48, #116, .T. ) ;
#252 = EDGE_CURVE ( 'NONE', #50, #52, #123, .T. ) ;
#253 = AXIS2_PLACEMENT_3D ( 'NONE', #73, #70, #87 ) ;
#254 = EDGE_CURVE ( 'NONE', #49, #50, #144, .T. ) ;
#255 = EDGE_CURVE ( 'NONE', #49, #51, #119, .T. ) ;
#256 = EDGE_CURVE ( 'NONE', #331, #328, #146, .T. ) ;
#257 = EDGE_CURVE ( 'NONE', #328, #331, #74, .T. ) ;
#258 = AXIS2_PLACEMENT_3D ( 'NONE', #305, #306, #307 ) ;
#259 = AXIS2_PLACEMENT_3D ( 'NONE', #299, #300, #301 ) ;
#260 = AXIS2_PLACEMENT_3D ( 'NONE', #302, #303, #304 ) ;
#261 = AXIS2_PLACEMENT_3D ( 'NONE', #308, #309, #99 ) ;
#262 = AXIS2_PLACEMENT_3D ( 'NONE', #335, #337, #338 ) ;
#263 = AXIS2_PLACEMENT_3D ( 'NONE', #297, #339, #340 ) ;
#264 = AXIS2_PLACEMENT_3D ( 'NONE', #67, #66, #68 ) ;
#265 = AXIS2_PLACEMENT_3D ( 'NONE', #154, #155, #158 ) ;
#266 = AXIS2_PLACEMENT_3D ( 'NONE', #336, #344, #345 ) ;
#267 = AXIS2_PLACEMENT_3D ( 'NONE', #343, #351, #352 ) ;
#268 = AXIS2_PLACEMENT_3D ( 'NONE', #347, #125, #126 ) ;
#269 = AXIS2_PLACEMENT_3D ( 'NONE', #136, #138, #139 ) ;
#270 = AXIS2_PLACEMENT_3D ( 'NONE', #127, #129, #130 ) ;
#271 = AXIS2_PLACEMENT_3D ( 'NONE', #124, #134, #135 ) ;
#272 = AXIS2_PLACEMENT_3D ( 'NONE', #128, #152, #153 ) ;
#273 = AXIS2_PLACEMENT_3D ( 'NONE', #151, #150, #156 ) ;
#274 = AXIS2_PLACEMENT_3D ( 'NONE', #161, #149, #162 ) ;
#275 = CC_DESIGN_PERSON_AND_ORGANIZATION_ASSIGNMENT ( #169, #175, ( #319 ) ) ;
#276 = PRODUCT_DEFINITION ( 'UNKNOWN', '', #281, #2 ) ;
#277 = APPROVAL ( #178, 'UNSPECIFIED' ) ;
#278 = CC_DESIGN_APPROVAL ( #277, ( #276 ) ) ;
#279 = CC_DESIGN_PERSON_AND_ORGANIZATION_ASSIGNMENT ( #196, #180, ( #276 ) ) ;
#280 = CC_DESIGN_DATE_AND_TIME_ASSIGNMENT ( #200, #181, ( #276 ) ) ;
#281 = PRODUCT_DEFINITION_FORMATION_WITH_SPECIFIED_SOURCE ( 'ANY', '', #319, .NOT_KNOWN. ) ;
#282 = APPROVAL ( #182, 'UNSPECIFIED' ) ;
#283 = CC_DESIGN_APPROVAL ( #282, ( #281 ) ) ;
#284 = CC_DESIGN_PERSON_AND_ORGANIZATION_ASSIGNMENT ( #208, #184, ( #281 ) ) ;
#285 = CC_DESIGN_PERSON_AND_ORGANIZATION_ASSIGNMENT ( #209, #185, ( #281 ) ) ;
#286 = SECURITY_CLASSIFICATION ( '', '', #186 ) ;
#287 = CC_DESIGN_PERSON_AND_ORGANIZATION_ASSIGNMENT ( #210, #187, ( #286 ) ) ;
#288 = CC_DESIGN_DATE_AND_TIME_ASSIGNMENT ( #214, #188, ( #286 ) ) ;
#289 = APPROVAL ( #189, 'UNSPECIFIED' ) ;
#290 = CC_DESIGN_APPROVAL ( #289, ( #286 ) ) ;
#291 = CC_DESIGN_SECURITY_CLASSIFICATION ( #286, ( #281 ) ) ;
#292 = PRODUCT_RELATED_PRODUCT_CATEGORY ( 'detail', '', ( #319 ) ) ;
#293 = DIRECTION ( 'NONE',  ( 0.0000000000000000000, -1.224646799147353500E-016, 1.000000000000000000 ) ) ;
#294 = CARTESIAN_POINT ( 'NONE',  ( 10.99999999999999600, 0.0000000000000000000, 0.0000000000000000000 ) ) ;
#295 = DIRECTION ( 'NONE',  ( -1.000000000000000000, -0.0000000000000000000, -0.0000000000000000000 ) ) ;
#296 = DIRECTION ( 'NONE',  ( 0.0000000000000000000, 0.0000000000000000000, 1.000000000000000000 ) ) ;
#297 = CARTESIAN_POINT ( 'NONE',  ( -10.79999999999999700, 0.0000000000000000000, 0.0000000000000000000 ) ) ;
#298 = DIRECTION ( 'NONE',  ( -1.000000000000000000, -0.0000000000000000000, -0.0000000000000000000 ) ) ;
#299 = CARTESIAN_POINT ( 'NONE',  ( -10.99999999999999600, 0.0000000000000000000, 0.0000000000000000000 ) ) ;
#300 = DIRECTION ( 'NONE',  ( -1.000000000000000000, -0.0000000000000000000, -0.0000000000000000000 ) ) ;
#301 = DIRECTION ( 'NONE',  ( 0.0000000000000000000, 0.0000000000000000000, 1.000000000000000000 ) ) ;
#302 = CARTESIAN_POINT ( 'NONE',  ( -10.99999999999999600, 0.0000000000000000000, 0.0000000000000000000 ) ) ;
#303 = DIRECTION ( 'NONE',  ( -1.000000000000000000, -0.0000000000000000000, -0.0000000000000000000 ) ) ;
#304 = DIRECTION ( 'NONE',  ( 0.0000000000000000000, 0.0000000000000000000, 1.000000000000000000 ) ) ;
#305 = CARTESIAN_POINT ( 'NONE',  ( -10.79999999999999700, 7.102951435054648700E-016, 5.800000000000000700 ) ) ;
#306 = DIRECTION ( 'NONE',  ( 0.0000000000000000000, 1.000000000000000000, -1.224646799147353200E-016 ) ) ;
#307 = DIRECTION ( 'NONE',  ( 0.0000000000000000000, 1.224646799147353500E-016, 1.000000000000000000 ) ) ;
#308 = CARTESIAN_POINT ( 'NONE',  ( -10.99999999999999800, 0.0000000000000000000, 0.0000000000000000000 ) ) ;
#309 = DIRECTION ( 'NONE',  ( -1.000000000000000000, -0.0000000000000000000, -0.0000000000000000000 ) ) ;
#310 = ORIENTED_EDGE ( 'NONE', *, *, #250, .F. ) ;
#311 = EDGE_LOOP ( 'NONE', ( #315, #313, #312, #316 ) ) ;
#312 = ORIENTED_EDGE ( 'NONE', *, *, #248, .T. ) ;
#313 = ORIENTED_EDGE ( 'NONE', *, *, #256, .F. ) ;
#314 = EDGE_LOOP ( 'NONE', ( #23, #24 ) ) ;
#315 = ORIENTED_EDGE ( 'NONE', *, *, #230, .F. ) ;
#316 = ORIENTED_EDGE ( 'NONE', *, *, #241, .F. ) ;
#317 = ORIENTED_EDGE ( 'NONE', *, *, #230, .T. ) ;
#318 = ORIENTED_EDGE ( 'NONE', *, *, #240, .F. ) ;
#319 = PRODUCT ( 'KH-0622', 'KH-0622', '', ( #174 ) ) ;
#320 = PERSON ( 'UNSPECIFIED', 'UNSPECIFIED', 'UNSPECIFIED', ('UNSPECIFIED'), ('UNSPECIFIED'), ('UNSPECIFIED') ) ;
#321 = ADVANCED_BREP_SHAPE_REPRESENTATION ( 'KH-0622', ( #323, #274 ), #166 ) ;
#322 = UNCERTAINTY_MEASURE_WITH_UNIT (LENGTH_MEASURE( 1.000000000000000100E-005 ), #157, 'distance_accuracy_value', 'NONE');
#323 = MANIFOLD_SOLID_BREP ( 'Fillet1', #37 ) ;
#324 = CARTESIAN_POINT ( 'NONE',  ( -10.99999999999999600, 3.673940397442059900E-016, -3.000000000000000000 ) ) ;
#325 = CARTESIAN_POINT ( 'NONE',  ( -10.79999999999999700, 0.0000000000000000000, 6.000000000000000000 ) ) ;
#326 = VERTEX_POINT ( 'NONE', #133 ) ;
#327 = VERTEX_POINT ( 'NONE', #142 ) ;
#328 = VERTEX_POINT ( 'NONE', #141 ) ;
#329 = CARTESIAN_POINT ( 'NONE',  ( 10.99999999999999600, 3.673940397442062300E-016, -3.000000000000002700 ) ) ;
#330 = VERTEX_POINT ( 'NONE', #148 ) ;
#331 = VERTEX_POINT ( 'NONE', #137 ) ;
#332 = ADVANCED_FACE ( 'NONE', ( #143, #121 ), #140, .F. ) ;
#333 = ADVANCED_FACE ( 'NONE', ( #147 ), #163, .T. ) ;
#334 = ADVANCED_FACE ( 'NONE', ( #164 ), #165, .T. ) ;
#335 = CARTESIAN_POINT ( 'NONE',  ( 10.80000000000000400, 0.0000000000000000000, 0.0000000000000000000 ) ) ;
#336 = CARTESIAN_POINT ( 'NONE',  ( 10.80000000000000400, 0.0000000000000000000, 5.800000000000000700 ) ) ;
#337 = DIRECTION ( 'NONE',  ( -1.000000000000000000, -0.0000000000000000000, -0.0000000000000000000 ) ) ;
#338 = DIRECTION ( 'NONE',  ( 0.0000000000000000000, 0.0000000000000000000, 1.000000000000000000 ) ) ;
#339 = DIRECTION ( 'NONE',  ( 1.000000000000000000, 0.0000000000000000000, 0.0000000000000000000 ) ) ;
#340 = DIRECTION ( 'NONE',  ( 0.0000000000000000000, 0.0000000000000000000, -1.000000000000000000 ) ) ;
#341 = CARTESIAN_POINT ( 'NONE',  ( -68.33153641321104000, 7.347880794884119700E-016, -6.000000000000000000 ) ) ;
#342 = DIRECTION ( 'NONE',  ( -1.000000000000000000, -0.0000000000000000000, -0.0000000000000000000 ) ) ;
#343 = CARTESIAN_POINT ( 'NONE',  ( -10.79999999999999700, 0.0000000000000000000, 0.0000000000000000000 ) ) ;
#344 = DIRECTION ( 'NONE',  ( 0.0000000000000000000, -1.000000000000000000, 0.0000000000000000000 ) ) ;
#345 = DIRECTION ( 'NONE',  ( 0.0000000000000000000, 0.0000000000000000000, -1.000000000000000000 ) ) ;
#346 = CARTESIAN_POINT ( 'NONE',  ( -10.99999999999999800, 0.0000000000000000000, 0.0000000000000000000 ) ) ;
#347 = CARTESIAN_POINT ( 'NONE',  ( -10.79999999999999700, 0.0000000000000000000, -5.800000000000000700 ) ) ;
#348 = DIRECTION ( 'NONE',  ( -1.000000000000000000, -0.0000000000000000000, -0.0000000000000000000 ) ) ;
#349 = DIRECTION ( 'NONE',  ( 0.0000000000000000000, 0.0000000000000000000, -1.000000000000000000 ) ) ;
#350 = CARTESIAN_POINT ( 'NONE',  ( -68.33153641321104000, 0.0000000000000000000, 3.000000000000001300 ) ) ;
#351 = DIRECTION ( 'NONE',  ( 1.000000000000000000, 0.0000000000000000000, 0.0000000000000000000 ) ) ;
#352 = DIRECTION ( 'NONE',  ( 0.0000000000000000000, 0.0000000000000000000, -1.000000000000000000 ) ) ;
#353 = DIRECTION ( 'NONE',  ( -1.000000000000000000, -0.0000000000000000000, -0.0000000000000000000 ) ) ;
ENDSEC;
END-ISO-10303-21;
